Free - Wishing Well Chords & Tabs

 

Wishing Well Chords & Tabs

Free Chords & Tabs

Version: 4 Type: Bass Tab 0 ratings
1 star 2 stars 3 stars 4 stars 5 stars
comments

Wishing Well Bass Tab

   
Wishing Well.btab
Free
TablEdited by Poppamies
Tuning : E A D G 	Time Signature: 4/4

 tempo 120       |       |        |       |       |       |        
|--------------------------------|--------------------------------|
|2---0---------------------------|--------------------------------|
|--------2---0-------------------|2---0---------------------------|
|--------------------------------|--------3---0-------------------|

 |       |       |       |        |       |       |       |        
|--------------------------------|--------------------------------|
|2---0---------------------------|--------------------------------|
|--------2---0-------------------|--------------------------------|
|--------------------------------|3-------------------------------|

 |       |       |       |        |       |       |       |        
|--------------------------------|--------------------------------|
|--------------------------------|--------------------------------|
|--------------------------------|7-------7-------7---5---7-------|
|(3)-----------------------------|--------------------------------|

 |       |       |       |        |       |       |       |        
|--------------------------------|--------------------------------|
|--------------------------------|--------------------------------|
|7---5---7-------7---5---7-------|--------------------------------|
|--------------------------------|0-------0-------0-------0-------|

 |       |       |       |        |       |       |       |        
|--------------------------------|--------0---------------2-------|
|--------------------------------|----2-----------0---4-------0---|
|--------------------------------|3-----------3-------------------|
|0-------0-------0-------0-------|--------------------------------|

 |       |       |       |        |       |       |       |        
|--------------------------------|--------------------------------|
|--------------------------------|--------------------------------|
|7-------7-------7-------7-------|7-------7-------7---5---7-------|
|--------------------------------|--------------------------------|

 |       |       |       |        |       |       |       |        
|--------------------------------|--------0---------------2-------|
|--------------------------------|----2-----------0---4-------0---|
|7-------7-------7---5---7-------|3-----------3-------------------|
|--------------------------------|--------------------------------|

 |       |       |       |        |       |       |       |        
|--------------------------------|--------5---------------7-------|
|--------------------------------|----5---------------7-----------|
|7-------7-------7-------7-------|3---------------5---------------|
|--------------------------------|--------------------------------|

 |       |       |       |        |       |       |       |        
|--------------------------------|--------5---------------7-------|
|--------------------------------|----5---------------7-----------|
|7-------7-------7-------7-------|3---------------5---------------|
|--------------------7-----------|--------------------------------|

 |       |       |       |        |       |       |       |        
|--------9---------------9-------|--------5---------------7-------|
|--------------------------------|----5---------------7-----------|
|7---------------7---------------|3---------------5---------------|
|--------------------------------|--------------------------------|

 |       |       |       |        |       |       |       |        
|9-------9-------9---------------|--------------------------------|
|----9---------------9-----------|----------------0---------------|
|------------------------7---5---|3-------------------------------|
|--------------------------------|--------------------------------|

 |       |       |       |        |       |       |       |        
|--------------------------------|--------------------------------|
|2---0---------------------------|--------------------------------|
|--------2---0-------------------|2---0---------------------------|
|--------------------------------|--------3---0-------------------|

 |       |       |       |        |       |       |       |        
|--------------------------------|--------------------------------|
|2---0---------------------------|--------------------------------|
|--------2---0-------------------|--------------------------------|
|--------------------------------|3-------------------------------|

 |       |       |       |        |       |       |       |        
|--------------------------------|--------------------------------|
|--------------------------------|--------------------------------|
|--------------------------------|7-------7-------7---5---7-------|
|(3)---------------------7-------|--------------------------------|

 |       |       |       |        |       |       |       |        
|--------------------------------|--------------------------------|
|--------------------------------|--------------------------------|
|7---5---7-------7---5---7-------|--------------------------------|
|--------------------------------|0-------0-------0-------0-------|

 |       |       |       |        |       |       |       |        
|--------------------------------|--------0---------------2-------|
|--------------------------------|----2-----------0---4-------0---|
|--------------------------------|3-----------3-------------------|
|0-------0-------0-------0-------|--------------------------------|

 |       |       |       |        |       |       |       |        
|--------------------------------|--------------------------------|
|--------------------------------|--------------------------------|
|7-------7-------7-------7-------|--------------------------------|
|--------------------------------|0-------0-------0-------0-------|

 |       |       |       |        |       |       |       |        
|--------------------------------|--------0---------------2-------|
|--------------------------------|----2-----------0---4-------0---|
|--------------------------------|3-----------3-------------------|
|0-------0-------0-------0-------|--------------------------------|

 |       |       |       |        |       |       |       |        
|--------------------------------|--------5---------------7-------|
|--------------------------------|----5---------------7-----------|
|7-------7-------7-----------5---|3---------------5---------------|
|------------------------7-------|--------------------------------|

 |       |       |       |        |       |       |       |        
|--------------------------------|--------5---------------7-------|
|--------------------------------|----5---------------7-----------|
|7-------7-------7-------7/--3---|3---------------5---------------|
|--------------------7-----------|--------------------------------|

 |       |       |       |        |       |       |       |        
|--------------------------------|--------5---------------7-------|
|--------------------------------|----5---------------7-----------|
|7-------7-----------7-----------|3---------------5---------------|
|------------5---7-------7-------|--------------------------------|

 |       |       |       |        |       |       |       |        
|9-------------------------------|--------------------------------|
|----9---------------------------|----------------0---------------|
|--------7-------7-------7---5---|3-------------------------------|
|--------------------7-----------|--------------------------------|
[ Tab from: http://www.guitartabs.cc/tabs/f/free/wishing_well_btab_ver_4.html ]
 |       |       |       |        |       |       |       |        
|--------------------------------|--------------------------------|
|2---0---------------------------|--------------------------------|
|--------2---0-------------------|2---0---------------------------|
|--------------------------------|--------3---0---0---0---0-------|

 |       |       |       |        |       |       |       |        
|--------------------------------|--------------------------------|
|2---0---------------------------|--------------------------------|
|--------2---0-------------------|0-------------------------------|
|--------------------------------|--------------------------------|

 |       |       |       |        |       |       |       |        
|--------------------------------|----------------0---------------|
|--------------------------------|3-------------------------------|
|(0)-----------------------------|--------------------------------|
|--------------------------------|--------------------------------|

 |       |       |       |        |       |       |       |        
|2-------------------------------|----------------0---------------|
|--------------------------------|3-------------------------------|
|--------------------------------|--------------------------------|
|--------------------------------|--------------------------------|

 |       |       |       |        |       |       |       |        
|2-------------------------------|----------------0---------------|
|--------------------------------|3-------------------------------|
|--------------------------------|--------------------------------|
|--------------------------------|--------------------------------|

 |       |       |       |        |       |       |       |        
|2-------------------------------|----------------0---------------|
|--------------------------------|3-------------------------------|
|--------------------------------|--------------------------------|
|--------------------------------|--------------------------------|

 |       |       |       |        |       |       |       |        
|2-------------------------------|----------------0---------------|
|--------------------------------|3-------------------------------|
|--------------------------------|--------------------------------|
|--------------------------------|--------------------------------|

 |       |       |       |        |       |       |       |        
|--------------------------------|----------------0---------------|
|--------------------------------|3-------------------------------|
|0---0---0---0---0-------0-------|--------------------------------|
|--------------------0-------0---|--------------------------------|

 |       |       |       |        |       |       |       |        
|--------------------------------|--------------------------------|
|--------------------------------|------------------------0-------|
|--------------------------------|----0---3-----------2-----------|
|5---5---5---5---5---5---5/--3---|1---------------3---------------|

 |       |       |       |        |       |       |       |        
|--------------------------------|--------------------------------|
|--------------------------------|------------------------0-------|
|0---0---0---0---0-------0-------|----0---3-----------2-2---------|
|--------------------0-----------|1---------------3---------------|

 |       |       |       |        |       |       |       |        
|--------------------------------|--------------------------------|
|----------------2---------------|--------------------------------|
|0-------0-----------0---0---0-0-|3-------3---3---3---3---3---3---|
|--------------------------------|--------------------------------|

 |       |       |       |        |       |       |       |        
|--------------------------------|--------------------------------|
|--------------------------------|0---0---0-------0---0---0---0---|
|3---3---3---3---3---3---3---3---|--------------------------------|
|--------------------------------|--------------------------------|

 |       |       |       |        |       |       |       |        
|--------------------------------|--------------------------------|
|0---0---0---0---0---0---0---0---|3---3---3---3---3---3---3---3---|
|--------------------------------|--------------------------------|
|--------------------------------|--------------------------------|

 |       |       |       |        |       |       |       |        
|0---0---0---0---0---0---0---0---|2---2---2---2---2---2---2---2---|
|--------------------------------|--------------------------------|
|--------------------------------|--------------------------------|
|--------------------------------|--------------------------------|

 |       |       |       |        |       |       |       |        
|2-------2---2---2---2---2---2---|----------------0---------------|
|--------------------------------|3-------------------------------|
|--------------------------------|--------------------------------|
|--------------------------------|--------------------------------|

 |       |       |       |        |       |       |       |        
|--------------------------------|------------------------0-------|
|--------------------------------|3-------------------0-----------|
|0-------0-------0-------0-------|----3---------------------------|
|--------------------0-----------|--------1-------3---------------|

 |       |       |       |        |       |       |       |        
|------------------------2-------|------------------------0-------|
|--------------------2-----------|3-------------------0-----------|
|0---0---0---0---0---------------|----3---------------------------|
|--------------------------------|--------1-------3---------------|

 |       |       |       |        |       |       |       |        
|--------------------------------|--------------------------------|
|--------------------------------|3-------------------------------|
|0-------0-------0-------0-------|--------------------------------|
|--------------------------------|----------------3---------------|

 |       |       |       |        |       |       |       |        
|2---0---------------------------|--------------------------------|
|--------2---0-------------------|2---0---------------------------|
|--------------------------------|--------3---0-------------------|
|--------------------------------|--------------------------------|

 |       |       |       |        |       |       |       |        
|2---0---------------------------|--------------------------------|
|--------2---0-------------------|2---0---------------------------|
|--------------------------------|--------3---0-------------------|
|--------------------------------|--------------------------------|

 |       |       |       |        |       |       |       |        
|2---0---------------------------|--------------------------------|
|--------2---0-------------------|2---0---------------------------|
|--------------------------------|--------3---0-------------------|
|--------------------------------|--------------------------------|

 |       |       |       |        |       |       |       |        
|2---0---------------------------|--------------------------------|
|--------2---0-------------------|2---0---------------------------|
|--------------------------------|--------3---0-------j.ne.....---|
|--------------------------------|--------------------------------|

Transcribe! 6.0 transcription http://www.seventhstring.demon.co.uk/
Created with TablEdit http://www.tabledit.com/
http://www.geocities.com/jani_bjorklund/janis.html
Comments