Free - Ill Be Creepin Chords & Tabs

 

Ill Be Creepin Chords & Tabs

Free Chords & Tabs

Version: 1 Type: Tab 0 ratings
1 star 2 stars 3 stars 4 stars 5 stars
comments

Ill Be Creepin Tab

--------------------------------------------------------------------
			I'll Be Creepin' - Free
------------------------------------------------------------------

Tabbed by: -Carl.
Email: mutatedidiot@aol.com

Tuning: -Standard.
[ Tab from: http://www.guitartabs.cc/tabs/f/free/ill_be_creepin_tab.html ]
e||----------------------------------------------------------|
B||----------------------------------------------------------|
G||----------------------------------7h8---------------------|
D||--------7----------------------7------9-------------------|
A||----7h9-------------------7h9-----------------------------|
E||--7--------------------7----------------------------------|


Bass riff played over the above riff:
G||----------------------------------------------------------|
D||----------------------------------------------------------|
A||--2--2--2----------2--2--2----------2--2--2---------------|
E||----------2--4--2----------2--4--2----------2--4--2-------|
Comments