Free - All Right Now Chords & Tabs

 

All Right Now Chords & Tabs

Free Chords & Tabs

Version: 6 Type: Tab 0 ratings
1 star 2 stars 3 stars 4 stars 5 stars
comments

All Right Now Tab

   
-------------------------------------------------------------------------------
			     All Right Now - Free
-------------------------------------------------------------------------------
Tabbed by:Bryan Thorsell

Intro and Verse
e|-------------2------------2-2-2-2-2-2--------------------------------------|
B|----2--------3---2--------3-3-3-3-3-3---2----------------------------------|
G|----2--------2---2--------2-2-2-2-2-2---2----------------------------------|
D|----2------------2----------------------2----------------------------------|
A|--------0------------0-----------------------------------------------------|
E|---------------------------------------------------------------------------|

Refrain:
A, A, D, A
[ Tab from: http://www.guitartabs.cc/tabs/f/free/all_right_now_tab_ver_6.html ]
Solo:
e|-------------------------5-----------5-|
B|---------------------------------------|
G|--2/4--2/4------------2----4^---2------|
D|-----------5/7--5/7--------------------|
A|---------------------------------------|
E|---------------------------------------|

e|-------15--17-|
B|---17---------|
G|--------------|4 times than bend the 17 on the last time
D|--------------|
A|--------------|
E|--------------|

e|--21^--17---20--17---20----17-15-------------------------------------------|
B|---------------------------------17----------------------------------------|
G|---------------------------------------------------------------------------|
D|---------------------------------------------------------------------------|
A|---------------------------------------------------------------------------|
E|---------------------------------------------------------------------------|

Back to refrain until end

| /  slide up
| \  slide down
| h  hammer-on
| p  pull-off
| ~  vibrato
| +  harmonic
| x  Mute note
===============================================================================
Comments