Free - All Right Now Chords & Tabs

 

All Right Now Chords & Tabs

Free Chords & Tabs

Version: 1 Type: Tab 0 ratings
1 star 2 stars 3 stars 4 stars 5 stars
comments

All Right Now Tab

All Right Now - Free

Tabbed by Niall Curran

You gotta love this song. And the chicks will love you if you play it this way!

Verse:

E|----------------|----------------|---------------------|-5--------------|
B|-2-----------3--|-2--------------|-3-3-3-3---3-3-3-3---|-5--------------|
G|-2-----------2--|-2--------------|-0-0-0-0---2-2-2-2---|-2--------------|
D|-2-----------4--|-2--------------|-4-4-4-4---4-4 4-4---|-2--------------|
A|-0--------0-----|-0------------0-|---------------------|-0--------------|
E|----------------|----------------|---------------------|----------------| 

Chorus:
[ Tab from: http://www.guitartabs.cc/tabs/f/free/all_right_now_tab.html ]
E|----------------|----------------|----------------|----------------|
B|----------------|----------------|----------------|----------------|
G|-9---9----------|---7------------|--7---7---------|-9--------------|
D|-7---7--9--7----|---5------------|--4---4---------|-7--------------|
A|-------------9--|----------------|----------------|----------------|
E|----------------|----------------|----------------|----------------|

Well that's how I play it anyway. It's as close as you're gonna get I reckon.

www.theinfluence.150m.com

Phil Lynott R.I.P
Rory Gallagher R.I.P

And I don't give a shit, Avril Lavigne rocks my world. Down with the haters.
Comments