Free - All Right Now Chords & Tabs

 

All Right Now Chords & Tabs

Free Chords & Tabs

Version: 5 Type: Bass Tab

All Right Now Bass Tab

Artist: Free
Song: All Right Now (Track 7, Fire And Water)

Tabber: Drew Thomson (drewthomson200@hotmail.com)

The bass doesn't come in until the chorus, so:

Chorus 1:

G|-------------------------------------------------------------------------|
D|7-7-7-7-7-7-7-----7-7-----7-7-7-----7-----7-7-7-7-7-7-7------7-7-7-------|
A|--------------9-7-----7-9-------7-9---9-----------------9-7--------9-7/-0|
E|-------------------------------------------------------------------------|

Chorus 2:

G|------------------------------------------------------------14-----------|
D|-7-7-7-7-7-7-7-----7-7-----7-7-7-----7-----7-7-7-7-7--14-16----16--------|
A|---------------9-7-----7-9-------7-9---9---------------------------------|
E|-------------------------------------------------------------------------|

G|-------------------------------------------------------------------------|
D|-7-7-7-------------------------------------------------------------------|
A|-------9-7/-0------------------------------------------------------------|
E|-------------------------------------------------------------------------|

Solo:

G|----------------------19----19-|
D|-7-77-----7-7------17----16----|
A|------7-9-----9-7--------------| x 18 (on the 18th follow with an open E)
E|-------------------------------|

Chorus 3:

G|-------------------------------------14----------------------------------|
D|-7-7-7-7-7-7-7-----7-7-----7---14-16----16-------------------------------|
A|---------------9-7-----7-9-----------------14/---------------------------|
E|-------------------------------------------------------------------------|
[ Tab from: http://www.guitartabs.cc/tabs/f/free/all_right_now_btab_ver_5.html ]
G|-------------------------------------------------------------------------|
D|-7-7-7-7-7-7-7-----7-7-7-------------------------------------------------|
A|---------------9-7-------9-7/-0------------------------------------------|
E|-------------------------------------------------------------------------|

G|-------------------------------------------------------------------------|
D|-7-7-7-7-7-7-7-----7-7-----7-7-7-----7-----------------------------------|
A|---------------9-7-----7-9-------7-9---9---------------------------------|
E|-------------------------------------------------------------------------|

G|-------------------------------------------------------------------------|
D|-7-7-7-7-7-7-7-----7-7-7-------------------------------------------------|
A|---------------9-7-------9-7/-0------------------------------------------|
E|-------------------------------------------------------------------------|

G|------------------------------------------14-----------------------------|
D|-7-7-7-7-7-7-7-------7-7------11-12-14-16----16/-------------------------|
A|---------------9-7-9-----7-9---------------------------------------------|
E|-------------------------------------------------------------------------|

G|-------------------------------------------------------------------------|
D|-------------------------------------------------------------------------|
A|-0---0---0---0---0---0---------------------------------------------------|
E|-------------------------------------------------------------------------|

At the end it has the 7 7 7 going constantly with some other bass bits from the previous riffs over the top.

If you want any more tabs by Free or you have any corrections for
this tab please e-mail me at drewthomson200@hotmail.com !