Free - All Right Now Chords & Tabs

 

All Right Now Chords & Tabs

Free Chords & Tabs

Version: 3 Type: Bass Tab 0 ratings
1 star 2 stars 3 stars 4 stars 5 stars
comments

All Right Now Bass Tab

There is no bass in the verses

FIRST CHORUS
G------------------------------------------------------------
D-77-7----77-7----77-7-----77-7----7--77-7---77-7---77-7-----
A-------------97------979-------979--------------97-----97/1-
E------------------------------------------------------------

SECOND CHORUS
G-------------------------------------------------------8/10-7/9----------
D-77-7---77-7----77-7-----7--7---7---77-7---7--7/9-8/10----------77-7-----
A------------97------979------979------------------------------------97/1-
E-------------------------------------------------------------------------

BRIDGE
G-----------------7---7- PLAY 18 TIMES G----- END WITH AN OPEN E ON 
D---------------5---4---               D----- THE 18TH TIME
A-----------------------               A-----
E-55-5-02-55-00---------               E--0--

THIRD CHORUS
[ Tab from: http://www.guitartabs.cc/tabs/f/free/all_right_now_btab_ver_3.html ]
G------------------------------------------------------------------
D-77-7---77-7----77-7-----7-7/15-15-15/7---77-7---77-7----77-7-----
A------------97------979------------------------------97------97/1-
E------------------------------------------------------------------

G------------------------------------------------------------
D-77-7---77-7----77-7-----7--7---7---77-7---77-7----77-7-----
A------------97------979------979---------------97------97/1-
E------------------------------------------------------------

G---------------------------------------------------------------------
D-77-7---77-7----77-7-----7-9-11-13/17/13---77-7---77-7----77-7-------
A------------97------979-------------------------------97------97/1---
E---------------------------------------------------------------------

G----------------------------------------------------------------
D-77-7---77-7-----77-7------77-7---7----77-7---77-7-----77-7-----
A------------97-------979-------979----------------97-------7/1--
E----------------------------------------------------------------

ALRIGHT, I HOPE THIS TAB HELPS.  HAVE FUN!
Comments