Free - All Right Now Chords & Tabs

 

All Right Now Chords & Tabs

Free Chords & Tabs

Version: 2 Type: Bass Tab 0 ratings
1 star 2 stars 3 stars 4 stars 5 stars
comments

All Right Now Bass Tab

"ALRIGHT NOW"
BY FREE
TABBED BY FRANKMAN
THE VERSES TO THIS SONG HAS NO BASS.
THE BASS COMES IN ON THE CHORUS.
                           
CHORUS
G-----------------------------------------------------------------------
D-7-7-7-7-7-7-7-----7-7-----7-7-7-----7---7-7-7-7-7-7-7-----7-7-7-------
A---------------9-7-----7-9-------7-9---9---------------9-7-------9-7\0-
E-----------------------------------------------------------------------
                  
BASS SOLO/GUITAR BREAK
G---------------------------------
D---------------------5-------4--- repeat several times
A-------------------5---5---4---4-
E-55-5-0-2-55-2-0-3-------2-------
[ Tab from: http://www.guitartabs.cc/tabs/f/free/all_right_now_btab_ver_2.html ]
Comments