Freddy King - Hide Away Chords & Tabs

 

Hide Away Chords & Tabs

Freddy King Chords & Tabs

Version: 2 Type: Tab 0 ratings
1 star 2 stars 3 stars 4 stars 5 stars
comments

Hide Away Tab

Tuning: standard
 
Im sure this tab will be in high demand...........

. = Palm mute
h = hammer on
p = pull off
/ = slide up
\ = slide down

e|--------0-2/4-------------------------0-2/4-4\2p0---0-------------------|
B|--0-0h2---------------------------0h2-------------2---------------------|
G|------------------------------------------------------------------------|
D|------------------------------------------------------------------------|
A|-----------------4-2-2-2-4-2-2---------------------------4-2-2-2-4-2-2--|
E|-----------------0-0-0-0-0-0-0---------------------------0-0-0-0-0-0-0--|
                   . . . . . . .                           . . . . . . .      
[ Tab from: http://www.guitartabs.cc/tabs/f/freddy_king/hide_away_tab_ver_2.html ]
e|-----------0-----0----------------------------0-2/4-2p0---0-------|
B|-0h2-0-0h2---0h2--------------------------0h2-----------2---------|
G|------------------------------------------------------------------|
D|---------------------2-2-4-2-2-2-4-2-2-2--------------------------|
A|---------------------0-0-0-0-0-0-0-0-0-0--------------------------|
E|------------------------------------------------------------------|
                       . . . . . . . . . .              

e|----------------------0-----0-----0-2-2-2--2/4-0-2p0------|
B|------------------0h2---0h2---0h2--------------------2----|
G|----------------------------------------------------------|
D|----------------------------------------------------------|
A|---4-2-2-2-4-2-2------------------------------------------|
E|---0-0-0-0-0-0-0------------------------------------------|
     . . . . . . .           
e|-----0-----0-----0-----------0-------0----------0--------------------|
B|-0h2---0h2---0h2---0---0-------3---------------------0---------------|
G|---------------------2---0h1-----2/4---4\2p0-----------2-------------|
D|---------------------------------------------2------------0h2--------|
A|---------------------------------------------------------------------|
E|---------------------------------------------------------------------|
Comments