Freak - Thus Far Chords & Tabs

 

Thus Far Chords & Tabs

Freak Chords & Tabs

Version: 1 Type: Tab 0 ratings
1 star 2 stars 3 stars 4 stars 5 stars
comments

Thus Far Tab

Song : Freak
Artist : Thus Far
Album : (this songs is not really off of anything but i have it on 
        the demo thingy i got from the guitar player. it's the 6th 
        song on it.)
Tuning : standard

this song should be right since i learned it from the guitar player.

intro and verses :

e---------5-------------------------------5-------------
B-----------5-------------0-----------------5---------0-
G-----5-------5-------------------5---5-----------------
D---3-----------3-----5---------3-------3---------5-----
A-5-----5-----------3---3-----5-----5-----------3---3---
E-----------------5---------------------------5---------

then the chorus is all like
[ Tab from: http://www.guitartabs.cc/tabs/f/freak/thus_far_tab.html ]
G------------------------------------5-5--5-------5-5--5-------
D-5----------------------------------3-3--3-5-5-5-3-3--3-5-5-5-
A-3--3-3-3-3-3-3-3-3/5-5-5-5-5-5-5-5-5-5--5-3-3-3-5-5--5-3-3-3-
E-5--1-0-1-0-1-0-1-0/3-0-3-0-3-0-3-0--------5-5-5--------5-5-5-

play that twice and then back to the chorus except the second time you
play it, cut out them last things and play the verse.

i don't know the solo so...

then the ending part is all like...

G-------5--------------5-------------------5--------------5-/7/5--------------5-
D----3--------5-----3--------5-/7/5-----3--------5-----3-------------5-----3----
A-5---------3----5---------3---------5---------3----5--------------3----5-------
E---------5--------------5-------------------5-------------------5--------------

The End...
Comments