Franz Schubert - Selenade Chords & Tabs

 

Selenade Chords & Tabs

Franz Schubert Chords & Tabs

Version: 1 Type: Tab 0 ratings
1 star 2 stars 3 stars 4 stars 5 stars
comments

Selenade Tab

   
                                   SELENADE                                     


                                                                 Schubert


                                                                  
E||--------------------|--------------------|--------------------|
B||--------1-----1-----|--------1-----1-----|--------0-----0-----|
G||-----2--2--2--2--2--|-----2--2--2--2--2--|-----2--2--2--2--2--|
D||-----2-----2-----2--|-----3-----3-----3--|-----3-----3-----3--|
A||--0-----------------|--------------------|--------------------|
D||--------------------|--3-----------------|--0-----------------|


                                                                     
--------------------|-----------5-----------|-----0-----5-----------|
--------0-----0-----|--5--6--5-----------5--|--3-----3--0-----0--3--|
-----1--1--1--1--1--|-----------5-----5-----|-----------------2-----|
-----2-----2-----2--|--------7-----7-----7--|--------0-----0-----3--|
--------------------|--0--------------------|-----------------------|
--2-----------------|-----------------------|--3--------------------|


                          Am                                            
--0--------------------|--------------------|--12--------10--10--8--7--|
-----------3--3--1--0--|--1-----------------|---------9------9---------|
--------1-----1--------|--------2-----2-----|------9-----9----------9--|
-----2-----2--------2--|-----2-----2-----2--|--------------------------|
-----------------------|--0-----------------|--7-----------------------|
--2--------------------|--------------------|--------------------------|


                                                                      
--8------------------|-----------8-----------|-----0-----7--------5--|
--------10-----------|--5--6--5--5--------5--|--3-----3--6-----0-----|
-----9------9--5/-2--|-----------5-----5-----|-----------------2-----|
---------------------|--------7-----7-----7--|--------0--7--0-----0--|
--0------------------|--0--------------------|-----------------------|
---------------------|-----------------------|--3--------------------|


                                                                     
--3--------1--1--0-----|--0--------------5--|--3--------1--1--0-----|
--------0-----0-----3--|--------1-----1-----|--------0-----0-----3--|
--------0-----0--------|--------0-----0-----|--------0-----0--------|
-----0-----0--------0--|-----2-----2-----2--|-----0-----0--------0--|
-----------------------|--3-----------------|-----------------------|
--5--------------------|--------------------|--5--------------------|


                                                                   
--0-----------------|--0--0--4-8--------7--|--5-----0-------------|
--------1-----1-----|-------------9-----9--|----------1-----------|
--------0-----0-----|----------7-----9-----|-----5----2--------2--|
-----2-----2-----2--|--2-------------------|-------------2--------|
--3-----------------|----------------------|--0-------------3--0--|
--------------------|----------------------|----------------------|


                                                                          
--1~-0--1--5-----------|--0-----------------|--10--9--10--13---------10--|
--------------------6--|--------1-----1-----|--------------------8-------|
-----------5-----5-----|--------0-----0-----|-------------12-----10------|
--------2-----7-----7--|-----2-----2-----2--|---------9-------9------9---|
-----------------------|--3-----------------|--10------------------------|
--3~-------------------|--------------------|----------------------------|


                                                                       
--8---------------------|----------8--------7--|--5-------------------|
----------8------8------|--------9----9-----9--|-----2--5-2-----------|
----------9------9------|--9--9----7-----7-----|----------2--------2--|
------10-----10-----10--|----------------------|-------------2--------|
------------------------|--7-------------------|--0-------------4--0--|
--10--------------------|----------------------|----------------------|


                                                                   
--2~----2-5--------2--|--0-----------------|--7------7--10--------|
-----5----3-----3-----|--------2-----2-----|-----11-----9------9--|
--------2----2-----2--|--------2-----2-----|---------9------9--7--|
----------------------|-----2-----2-----2--|----------------------|
----------------------|--0-----------------|--7-------------------|
--0~------------------|--------------------|----------------------|


                                                                 
--5-----------------|--------------5-------|--0--------0--0--0--|
--------2-----2-----|--6-----------7-----7-|--2--------2--2--2--|
--------2-----2-----|--7-----7-------------|--------2-----2-----|
-----2-----2-----2--|-----7-----7-----7----|-----2-----2-----2--|
--0-----------------|--0-------------------|--0-----------------|
--------------------|----------------------|--------------------|


                                                                 
--0--------0--0--0--|--0-----------0-----|--------------5-------|
--3-----------0--3--|--2-----------2-----|--7-----------7-----7-|
--------1--1--1-----|--------2-----2-----|--7-----7-----------7-|
-----2-----2-----2--|-----2-----2-----2--|-----7-----7-----7----|
--------------------|--0-----------------|----------------------|
--2-----------------|--------------------|--0-------------------|


                                                               
--0--------0--0--0--|--0--------0--0--0--|--0-----------------|
--2--------2--2--2--|--3-----------0--3--|--2-----------------|
--------2-----2-----|--------1--1--1-----|--------2-----2-----|
-----2-----2-----2--|-----2-----2-----2--|-----2-----2-----2--|
--0-----------------|--------------------|--0-----------------|
--------------------|--2-----------------|--------------------|


                                                                        
-----------5-----------|-----0-----5-----------|--0--------------------|
--5--6--5-----------5--|--3-----3--0-----0--3--|-----------3--3--1--0--|
-----------5-----5-----|-----------------2-----|--------1-----1--------|
--------7-----7-----7--|--------0-----0-----3--|-----2-----2--------2--|
--0--------------------|-----------------------|-----------------------|
-----------------------|--3--------------------|--2--------------------|

[ Tab from: http://www.guitartabs.cc/tabs/f/franz_schubert/selenade_tab.html ]
  Am                                                                  
--------------------|--12--------10--10--8--7--|--8------------------|
--1-----------------|---------9------9---------|--------10-----------|
--------2-----2-----|------9-----9----------9--|-----9------9--5/-2--|
-----2-----2-----2--|--------------------------|---------------------|
--0-----------------|--7-----------------------|--0------------------|
--------------------|--------------------------|---------------------|


                                                                        
-----------8-----------|-----0-----7--------5--|--3--------1--1--0-----|
--5--6--5--5--------5--|--3-----3--6-----0-----|--------0-----0-----3--|
-----------5-----5-----|-----------------2-----|--------0-----0--------|
--------7-----7-----7--|--------0--7--0-----0--|-----0-----0--------0--|
--0--------------------|-----------------------|-----------------------|
-----------------------|--3--------------------|--5--------------------|


                                                                  
--0--------------5--|--3--------1--1--0-----|--0-----------------|
--------1-----1-----|--------0-----0-----3--|--------1-----1-----|
--------0-----0-----|--------0-----0--------|--------0-----0-----|
-----2-----2-----2--|-----0-----0--------0--|-----2-----2-----2--|
--3-----------------|-----------------------|--3-----------------|
--------------------|--5--------------------|--------------------|


                                                                      
--0--0--4-8--------7--|--5-----0-------------|--1~-0--1--5-----------|
-------------9-----9--|----------1-----------|--------------------6--|
----------7-----9-----|-----5----2--------2--|-----------5-----5-----|
--2-------------------|-------------2--------|--------2-----7-----7--|
----------------------|--0-------------3--0--|-----------------------|
----------------------|----------------------|--3~-------------------|


                                                                           
--0-----------------|--10--9--10--13---------10--|--8---------------------|
--------1-----1-----|-------------8------8-------|----------8------8------|
--------0-----0-----|--------------------10------|----------9------9------|
-----2-----2-----2--|---------9-------9------9---|------10-----10-----10--|
--3-----------------|--10------------------------|------------------------|
--------------------|----------------------------|--10--------------------|


                                                                     
----------8--------7--|--5-----0-------------|--2~----2-5--------2--|
--------9----9-----9--|-----2----2-----------|-----5----3-----3-----|
--9--9----7-----7-----|----------2--------2--|--------2----2-----2--|
----------------------|-------------2--------|----------------------|
--7-------------------|--0-------------4--0--|----------------------|
----------------------|----------------------|--0~------------------|


                                                                 
--0-----------------|--7------7--10--------|--5-----------------|
--------2-----2-----|-----11-----9------9--|--------2-----2-----|
--------2-----2-----|---------9------9--7--|--------2-----2-----|
-----2-----2-----2--|----------------------|-----2-----2-----2--|
--0-----------------|--7-------------------|--0-----------------|
--------------------|----------------------|--------------------|


                                                                             
--0-----0-4-----0-7-----0-|--5-------4---------------|--0--------4/-7-----5-|
-----0-------0-------0----|-----0-------0-------3----|-----3-----0-----0----|
--------------------------|----------1-------2-----4-|--2-----1-----7-------|
----------2-------6-------|--------2-------1---------|----------------------|
--------------------------|--------------------------|----------------------|
--2-----------------------|--------------------------|--2-------------------|


                                                      
--4-------------------|--9---------------------------|
-----3--0--3--0--3----|--------------12--12--10--9---|
-----------0--4-----2-|----------10------------------|
--2-------------------|------11------11--9-------11--|
----------------------|--11--------------------------|
----------------------|------------------------------|


                                                                         
--------------------------|--2-----4-5-----2-----|--2-----4-5-----2-----|
----------9-10------6-----|----------0-----0-----|-----2-------2-----2--|
--11--------11---------6--|----------------2-----|----------------3-----|
------11--------11--7-----|-----0-------0-----0--|----------4-----------|
--9-----------------------|----------------------|----------------------|
--------------------------|--4-------------------|--4-------------------|


                                                                      
--2~-1--2--5--------2--|--0-----------------|--7--6--7--10-----------|
-----------3-----3-----|--------2-----2-----|-----------9---------9--|
--------2-----2-----2--|--------2-----2-----|--------9------9--7--9--|
-----------------------|-----2-----2-----2--|------------------------|
-----------------------|--0-----------------|--7---------------------|
--0~-------------------|--------------------|------------------------|


                                                                 
--5-----------------|--5-----------5-----5-|--1-----------------|
--------5-----5-----|--------5-----5-------|--------0-----0-----|
-----6--6--6--6--6--|-----5--5--5--5--5----|--------2-----2-----|
-----7-----7-----7--|-----7-----7-----7----|-----0-----0-----0--|
--0-----------------|--0-------------------|--------------------|
--------------------|----------------------|--0-----------------|


                                                                 
--0-----------------|--------------0-----|--------------5-------|
--------0-----0-----|--2-----------2-----|--6-----------6-----6-|
--------1-----1-----|--------2-----2-----|--7-----7-----------7-|
-----2-----2-----2--|-----2-----2-----2--|-----7-----7-----7----|
--------------------|--0-----------------|--0-------------------|
--2-----------------|--------------------|----------------------|


                                                               
--1--------1--1--1--|--0--------0--0--0--|--0-----------------|
--2--------2--2--2--|--3-----------0--3--|--2-----------------|
--------2-----2-----|--------1--1--1-----|--------2-----2-----|
-----2-----2-----2--|-----2-----2-----2--|-----2-----2-----2--|
--0-----------------|--------------------|--0-----------------|
--------------------|--2-----------------|--------------------|


                                       
--------------------|----------------||
--2-----------------|----------------||
--------2-----2-----|----------------||
-----2-----2-----2--|--7-------------||
--0-----------------|--0-------------||
--------------------|--10------------||
Comments