Franz Schubert - Impromptu Opus 90 D 8 Chords & Tabs

 

Impromptu Opus 90 D 8 Chords & Tabs

Franz Schubert Chords & Tabs

Version: 1 Type: Tab 0 ratings
1 star 2 stars 3 stars 4 stars 5 stars
comments

Impromptu Opus 90 D 8 Tab

                 Franz Schubert - Impromptus Opus 90 D 899

Transcribed by Christian_ottem@hotmail.com

This is my arrangement of one of Franz Schubert's well known Impromtus.
It's an Allegro so it's not gonna be easy, but split the piece up in small parts
And learn each one of them seperately.

So long!
J=200
16th notes
E||----------------|-----------------------|-----------------------|
B||----------11----|--8-11-9-8-------------|-----------------------|
G||----------------|-----------10-8-7------|-----------------------|
D||----------------|------------------10-8-|--6--------------------|
A||----------------|-----------------------|----10-8-6-------------|
E||----------------|-----------------------|-----------10-8-6-8-10-|

--------------------|------------------------|--------------------|
--------------------|------------------------|--------------------|
--------------------|------------------------|--------------5-7-8-|
--------------------|----------------------6-|--5-8-6-5-6-8-------|
--6-5-6-7-6-7-8-7-8-|--9-8-9-10-9-10-11-10---|--------------------|
--------------------|------------------------|--------------------|

----8-6-4-----------|--------------------|--------------------|
--6-------8-6-4-----|----6-4-3-----------|------------------6-|
----------------7-5-|--3-------5-3-1-----|------------5-7-8---|
--------------------|----------------5-3-|------5-6-8---------|
--------------------|--------------------|--6-8---------------|
--------------------|--------------------|--------------------|

-----------------------|-----------------------|--------------------|
--8-11-9-8-------------|-----------------------|--------------------|
-----------10-8-7------|-----------------------|--------------------|
------------------10-8-|--6--------------------|--------------------|
-----------------------|----10-8-6-------------|--6-5-6-7-6-7-8-7-8-|
-----------------------|-----------10-8-6-8-10-|--------------------|

------------------------|--------------------|----8-6-4-----------|
------------------------|--------------------|--6-------8-6-4-----|
------------------------|--------------5-7-8-|----------------7-5-|
----------------------6-|--5-8-6-5-6-8-------|--------------------|
--9-8-9-10-9-10-11-10---|--------------------|--------------------|
------------------------|--------------------|--------------------|

-----------------------|-----------------------------|
----------------8-9-11-|--------------------15-16-18-|
----10-8-7-8-10--------|-----------13-15-17----------|
--8--------------------|--13-15-17-------------------|
-----------------------|-----------------------------|
-----------------------|-----------------------------|
[ Tab from: http://www.guitartabs.cc/tabs/f/franz_schubert/impromptu_opus_90_d_8_tab.html ]
--15-18-16-15----------------|-----------------------------|
--------------18-16-15-------|-----------------------------|
-----------------------17-15-|--13-------------------------|
-----------------------------|-----17-15-13----------------|
-----------------------------|--------------17-15-13-15-17-|
-----------------------------|-----------------------------|

-----------------------------|-----------------------------|
-----------------------------|-----------------------------|
-----------------------------|--11-10-11-12-11-12-13-12-13-|
--13-12-13-14-13-14-15-14-15-|-----------------------------|
-----------------------------|-----------------------------|
-----------------------------|-----------------------------|

-----------------------------|-----20-18-16----------------|
-----------------------15-16-|--18----------20-18-16-------|
--12-15-13-12-13-15-17-------|-----------------------19-17-|
-----------------------------|-----------------------------|
-----------------------------|-----------------------------|
-----------------------------|-----------------------------|

-----------------------------|--------------------------|---------------------|
-----18-16-15----------------|--------------------------|---------------------|
--15----------17-15-13-12----|-----12-10-8--------------|---------------------|
--------------------------15-|--13---------12-10-8------|-----8-6-5-----------|
-----------------------------|---------------------11-8-|--10-------8-6-4-----|
-----------------------------|--------------------------|-----------------7-6-|

-----------------11-15-11-------------|--11--|
--------------11----------11----------|--11--|
-----------12----------------13-------|--12--|
--------13----------------------13----|--13--|
-----13----------------------------13-|--13--|
--11----------------------------------|--11--|

The rhythm part is very easy; Play this through the whole song:
E||--------------|----------------|----------------|----------------|
B||--------------|----------------|----------------|----------------|
G||--------------|-------3--------|-------3--------|--0----3--------|
D||--------------|--1-------------|--3-------------|----------------|
A||--------------|----------------|----------------|----------------|
E||--------------|----------------|----------------|----------------|

----------------|----------------|----------------|----------------|
----------------|----------------|-------1--------|-------3--------|
-------3--------|-------3--------|-------1--------|-------3--------|
--0-------------|--1-------------|----------------|-------6--------|
----------------|----------------|----------------|--1-------------|
----------------|----------------|--4-------------|----------------|


----------------|
-------4--------|
-------3--------|
--1----5--------|
----------------|
----------------|
Comments