Franz Ferdinand - Your Diary Chords & Tabs

 

Your Diary Chords & Tabs

Franz Ferdinand Chords & Tabs

Version: 1 Type: Tab 0 ratings
1 star 2 stars 3 stars 4 stars 5 stars
comments

Your Diary Tab

This is my first tab, but let me know what you think. This is a song from franz ferdinands new album.

e --1--------|
B 3--3-3-3-1-|
G -----------|
D -----------| *SILENCE*
A -----------|
E -----------|
[ Tab from: http://www.guitartabs.cc/tabs/f/franz_ferdinand/your_diary_tab.html ]
Intro
e --1--------------------------------------------------------------------|
B 3--3-1-1--1--------------3-3-3-3-3-3-3-1-3-3-3-1-3-1-1--1--------------|
G --------2--2-2-0--------------------------------------2--2-2-0---------|
D -----------------3-2-0-0---------------------------------------3-2-0-0-|
A -----------------------------------------------------------------------|
E -----------------------------------------------------------------------|

e --------|
B ------1-|
G ---0-2--|  * REPEAT INTRO WITH LYRICS *
D 2-3-----|
A --------|
E --------|

Sorry but thats as much as ive got. Please rate it and let me know wat u think.
Comments