Franz Ferdinand - Van Tango Chords & Tabs

 

Van Tango Chords & Tabs

Franz Ferdinand Chords & Tabs

Version: 2 Type: Tab 0 ratings
1 star 2 stars 3 stars 4 stars 5 stars
comments

Van Tango Tab

   
Intro:
e|-------------------------------------------------------------|
B|-------------------------------------------------------------|
G|-10-10/11-11-11-11-11-11-11-11-10-10/11-11-11-11-11-11-11-11-|
D|-10-10/11-11-11-11-11-11-11-11-10-10/11-11-11-11-11-11-11-11-|
A|-------------------------------------------------------------|
E|-------------------------------10-10/11-11-11-11-11-11-11-11-|
 

|-------------------------------------------------------------|
|-------------------------------------------------------------|
|-10-10/11-11-11-11-11-11-11-11-10-10/11-11-11-11-11-11-11-11-|
|-10-10/11-11-11-11-11-11-11-11-10-10/11-11-11-11-11-11-11-11-|
|-------------------------------------------------------------|
|-10-10/11-11-11-11-11-11-11-11-10-10/11-11-11-11-11-11-11-11-|
 

Verse:
|-8--8--8--8--8--8--8--8--8--6--6--6--6--6--6--6--6--6-|
|-8--8--8--8--8--8--8--8--8--8--8--8--8--8--8--8--8--8-|
|-9--9--9--9--9--9--9--9--9--8--8--8--8--8--8--8--8--8-|play 6x's
|------------------------------------------------------|
|------------------------------------------------------|
|------------------------------------------------------|
 

Pre-Chorus:
|-------------------------------------------------------------|
|-------------------------------------------------------------|
|-10-10/11-11-11-11-11-11-11-11-10-10/11-11-11-11-11-11-11-11-|
|-10-10/11-11-11-11-11-11-11-11-10-10/11-11-11-11-11-11-11-11-|
|-------------------------------------------------------------|
|-10-10/11-11-11-11-11-11-11-11-10-10/11-11-11-11-11-11-11-11-|
 

|-------------------------------------------------------------|
|-------------------------------------------------------------|
|-10-10/11-11-11-11-11-11-11-11-10-10/11-11-11-11-11-11-11-11-|
|-10-10/11-11-11-11-11-11-11-11-10-10/11-11-11-11-11-11-11-11-|
|-------------------------------------------------------------|
|-10-10/11-11-11-11-11-11-11-11-10-10/11-11-11-11-11-11-11-11-|
 

Chorus:
Guitar:
|-8-8-8-8-8-8-8-8-8--8--8--8--8--8--8--8--8--8--|
|-8-8-8-8-8-8-8-8-8--10-10-10-10-10-10-10-10-10-|
|-9-9-9-9-9-9-9-9-9--10-10-10-10-10-10-10-10-10-|play 4x's
|-----------------------------------------------|
|-----------------------------------------------|
|-----------------------------------------------|
 
Keyboard (I just tabbed it out):
|--------6--6--6-6-6-5--5-5-----3-0------------|
|-1-1--1-----------------------------4-1----1--|
|------------------------------------------3---|
|----------------------------------------------|
|----------------------------------------------|
|----------------------------------------------|
 

|-----------6--6--6-6-6-5---5-5---3-3----------|
|-1-1---1--------------------------4---1-------|
|----------------------------------------------|
|----------------------------------------------|
|----------------------------------------------|
|----------------------------------------------|
 

|-----------6--6--6-6-6-5---5-5---3-0----------|
|-1-1---1----------------------------4-1----1--|
|------------------------------------------3---|
|----------------------------------------------|
|----------------------------------------------|
|----------------------------------------------|
 
|-----------6--6--6-6-6-5---5-5----------------|
|-1-1---1--------------------------------------|
|----------------------------------------------|
|----------------------------------------------|
|----------------------------------------------|
|----------------------------------------------|
 
[ Tab from: http://www.guitartabs.cc/tabs/f/franz_ferdinand/van_tango_tab_ver_2.html ]
Interlude/Verse:
Guitar:
|-8--8--8--8--8--8--8--8--8--6--6--6--6--6--6--6--6--6-|
|-8--8--8--8--8--8--8--8--8--8--8--8--8--8--8--8--8--8-|
|-9--9--9--9--9--9--9--9--9--8--8--8--8--8--8--8--8--8-|
|------------------------------------------------------|
|------------------------------------------------------|
|------------------------------------------------------|
Keyboard:
|------------------------------------------------------|
|-1---1----------------1---1---------------------------|
|---3---3----------------3---3-------------------------|
|------------------------------------------------------|
|------------------------------------------------------| 
|------------------------------------------------------|
Play these parts 8x's, the verse starts on the third time.
 
Play Pre-Chorus
 
Chorus:
The guitar is the same, but the keyboard part is a little different:
|--------6--6--6-6-6-5--5-5-----3-0------------|
|-1-1--1-----------------------------4-1----1--|
|------------------------------------------3---|
|----------------------------------------------|
|----------------------------------------------|
|----------------------------------------------|
 

|-----------6--6--6-6-6-5---5-5---3-3----------|
|-1-1---1--------------------------4---1-------|
|----------------------------------------------|
|----------------------------------------------|
|----------------------------------------------|
|----------------------------------------------|
 

|--------6--6--6-6-6-5--5-5-----3-0------------|
|-1-1--1-----------------------------4-1----1--|
|------------------------------------------3---|
|----------------------------------------------|
|----------------------------------------------|
|----------------------------------------------|
 

|--------6--6--6-6-6-5--5-5-----3-0------------|
|-1-1--1-----------------------------4-1-------|
|------------------------------------------3---|
|----------------------------------------------|
|----------------------------------------------|
|----------------------------------------------|
 
 
 
Bridge:
The bass plays alone for the first bit, so I tabbed it out:
|------------------------------------------------|
|------------------------------------------------|
|------------------------------------------------|
|------------------------------------------------|
|-------------------------------------------6--6-|
|-8--8--8--8--8--8--8--8--4--4--4--4--4--4-------|
 
Then the guitar comes in:
Guitar:
|-8-8-8-8-8-8-8-8-6-6-6-6-6-6-6-6-|
|-8-8-8-8-8-8-8-8-8-8-8-8-8-8-8-8-|play 4x's
|-9-9-9-9-9-9-9-9-8-8-8-8-8-8-8-8-|
|---------------------------------|
|---------------------------------|
|---------------------------------|
The third time this plays, the keyboards come in:
Keyboard:
|------------------|
|-11b(13~11~13~11)-|
|------------------|
|------------------|
|------------------|
|------------------|
This keeps bending up and down, and it fades out just
before the guitar goes into this:
 
Guitar:
|-8--8--8--8---8--8--8--8---8--8--8--8---8--8--8--8--|
|-8--8--8--8---8--8--8--8---8--8--8--8---8--8--8--8--|
|-9--9--9--9---9--9--9--9---9--9--9--9---9--9--9--9--|
|-10-10-10-10--10-10-10-10--10-10-10-10--10-10-10-10-|
|-10-10-10-10--10-10-10-10--10-10-10-10--10-10-10-10-|
|----------------------------------------------------|
 

|-6-6-6-6--6-6-6-6--6-6-6-6--6-6-6-6-|
|-8-8-8-8--8-8-8-8--8-8-8-8--8-8-8-8-|
|-8-8-8-8--8-8-8-8--8-8-8-8--8-8-8-8-|
|-8-8-8-8--8-8-8-8--8-8-8-8--8-8-8-8-|
|-6-6-6-6--6-6-6-6--6-6-6-6--6-6-6-6-|
|------------------------------------|
 

|-8--8--8--8---8--8--8--8---8--8--8--8---8--8--8--8--|
|-8--8--8--8---8--8--8--8---8--8--8--8---8--8--8--8--|
|-9--9--9--9---9--9--9--9---9--9--9--9---9--9--9--9--|
|-10-10-10-10--10-10-10-10--10-10-10-10--10-10-10-10-|
|-10-10-10-10--10-10-10-10--10-10-10-10--10-10-10-10-|
|----------------------------------------------------|
 

|-6-6-6-6--6-6-6-6--6-6-6-6-6-6-6-6-6-6-6-6-|
|-8-8-8-8--8-8-8-8--8-8-8-8-8-8-8-8-8-8-8-8-|
|-8-8-8-8--8-8-8-8--8-8-8-8-8-8-8-8-8-8-8-8-|
|-8-8-8-8--8-8-8-8--8-8-8-8-8-8-8-8-8-8-8-8-|
|-6-6-6-6--6-6-6-6--6-6-6-6-6-6-6-6-6-6-6-6-|
|-------------------------------------------|
Comments