Franz Ferdinand - This Fire Chords & Tabs

 

This Fire Chords & Tabs

Franz Ferdinand Chords & Tabs

Version: 1 Type: Tab 1 rating
1 star 2 stars 3 stars 4 stars 5 stars
comments

This Fire Tab

-------------------------------------------------------------------------------
                       Franz Ferdinand - This Fire                        
-------------------------------------------------------------------------------


Intro:

e-----x-x-----x-x-------x-x-10-10-x-x-----x-x-------x-x-------x-x--------------|
B-6-6-x-x-8-8-x-x-10-10-x-x-10-10-x-x-8-8-x-x-10-10-x-x-11-11-x-x-13-13--------|
G-7-7-x-x-9-9-x-x-10-10-x-x-------x-x-9-8-x-x-10-10-x-x-12-12-x-x-13-13--------|
D------------------------------------------------------------------------------|
A------------------------------------------------------------------------------|
E------------------------------------------------------------------------------|

Repeat in verse time...

"A fire that burns...........This fire is out of control, I'm gonna burn this city..."
[ Tab from: http://www.guitartabs.cc/tabs/f/franz_ferdinand/this_fire_tab.html ]
e---------------------|--------------------------------------------------------------|
B---------------------|--------------------------------------------------------------|
G--10----------9------|--7-7-x-x--7-7-x-x-7-7-x-x-7-7-x-x-----------10-10-x-x-10-10--|
D--10--x8------9--x8--|--7-7-x-x--7-7-x-x-7-7-x-x-7-7-x-x-----------10-10-x-x-10-10--|x4
A--8-----------7------|--5-5-x-x--5-5-x-x-5-5-x-x-5-5-x-x-----------8--8--x-x-8--8---|
E---------------------|--------------------------------------------------------------|

Then, again the intro riff

e-----x-x-----x-x-------x-x-10-10-x-x-----x-x-------x-x-------x-x--------------|
B-6-6-x-x-8-8-x-x-10-10-x-x-10-10-x-x-8-8-x-x-10-10-x-x-11-11-x-x-13-13--------|
G-7-7-x-x-9-9-x-x-10-10-x-x-------x-x-9-8-x-x-10-10-x-x-12-12-x-x-13-13--------|
D------------------------------------------------------------------------------|
A------------------------------------------------------------------------------|
E------------------------------------------------------------------------------|

With guitar2:

A--3-5---3-3-5-3-5-3---3-5---3-3-5-3-5-3---3-5---3-3-5-3-5-3----|


Mail your opinions to godo_monge@hotmail.com


Tabbed by:
Godo Monge - FIND
Méico City
13/03/05
Comments