Franz Ferdinand - This Fire Chords & Tabs

 

This Fire Chords & Tabs

Franz Ferdinand Chords & Tabs

Version: 3 Type: Bass Tab 0 ratings
1 star 2 stars 3 stars 4 stars 5 stars
comments

This Fire Bass Tab

   
Song: This Fire
Band: Franz Ferdinand
Album: Franz Ferdinand
Tabbed by: Kyle MacDonald (kylehnat@hotmail.com)


(Bass comes in at 00:10)

Verse 1
G|----------------00-00-00-00-----|
D|--00-00-00-0003-----------------|
A|03------------------------------| X4
E|--------------------------------|
then
G|---------------|
D|--00-00-00-00--|
A|03-------------| 
E|---------------|

Pre-Chorus
G|--------------------------------|
D|2-2-2-2-2-2-2-2-0-0-0-0-0-0-0-0-|
A|--------------------------------|
E|--------------------------------|

Chorus
G|--------------------------------|
D|0-0-0-0-0-0-0-0---------------1-|
A|----------------1-1-1-1-1-1-1---| X4
E|--------------------------------|

Verse 2
G|--------------00-00-00-00-----|
D|00-00-00-0003-----------------|
A|------------------------------|
E|------------------------------|
then
G|----------------00-00-00-00---|
D|--00-00-00-0003---------------|
A|03----------------------------| X3
E|------------------------------|
then
G|-----------------|
D|--00-00-00-000---|
A|03---------------|
E|-----------------|

Pre-Chorus
G|--------------------------------|
D|2-2-2-2-2-2-2-2-0-0-0-0-0-0-0-0-|
A|--------------------------------|
E|--------------------------------|

Chorus
G|--------------------------------|
D|0-0-0-0-0-0-0-0---------------1-|
A|----------------1-1-1-1-1-1-1---| X3
E|--------------------------------|
[ Tab from: http://www.guitartabs.cc/tabs/f/franz_ferdinand/this_fire_btab_ver_3.html ]
Bridge
G|--------------------------------|
D|0-0-0-0-0-0-0-0-4-4-4-4-4-4-4-4-|
A|--------------------------------|
E|--------------------------------|
then
G|--------------------------------|
D|2-2-2-2-2-2-2-2----------------0|
A|---------------02-2-2-2-2-2-2-2-| X2
E|--------------------------------|
then
G|--------------------------------|
D|2-2-2-2-2-2-2-2-1-1-1-1-1-1-1-1-|
A|--------------------------------|
E|--------------------------------|
then
G|--------------------------------|
D|0-0-0-0-0-0-0-0-----------------|
A|----------------22222222--------|
E|--------------------------------|

Verse 3
G|---00-00-00-00-----|
D|03-----------------|
A|-------------------|
E|-------------------|
then
G|----------------00-00-00-00---|
D|--00-00-00-0003---------------|
A|03----------------------------| X3
E|------------------------------|
then
G|-----------|
D|-----------|
A|03---------| 
E|-----------|

Chorus
G|--------------------------------|
D|0-0-0-0-0-0-0-0---------------1-|
A|----------------1-1-1-1-1-1-1---| X4
E|--------------------------------|

Outro
G|--------------00-00-00-00-----|
D|00-00-00-0003-----------------|
A|------------------------------|
E|------------------------------|
then
G|----------------00-00-00-00---|
D|--00-00-00-0003---------------|
A|03----------------------------|
E|------------------------------|

End with
G|----------|
D|--0-------|
A|03--------|
E|----------|

-----------------------------------------------------------
Comments