Franz Ferdinand - This Boy Chords & Tabs

 

This Boy Chords & Tabs

Franz Ferdinand Chords & Tabs

Version: 1 Type: Tab 0 ratings
1 star 2 stars 3 stars 4 stars 5 stars
comments

This Boy Tab

   
-------------------------------------------------------------------------------
			     THIS BOY - Franz Ferdinand
-------------------------------------------------------------------------------
Tabbed by: Silvertie
Email: silvertie@gmail.com

This is for the song on the upcoming album - "You Could Have It So Much Better"

If this seem rather cloudy to you, I apologise and hope that my future tabs will be a little clearer.

Tuning: Standard Tuning

Chorus #1

 D
e|-0-2-4-2-0--0-2-4-2-0---------------|
B|---------------------0-2-3-2-0-0-2-3|
G|------------------------------------|
D|------------------------------------|
A|------------------------------------|
E|------------------------------------|

"Yeah"

Chorus #2

  Bm
e|---------------------------------------|
B|---------------------------------------|
G|---------------------------------------|
D|-----0-----0-----0-----0-----0-----0---|
A|----2-2---2-2---2-2---2-2---2-2---2-2--|
E|-1-3---1-3---3-3---0-0---1-3---1-3-----|

Verse
[ Tab from: http://www.guitartabs.cc/tabs/f/franz_ferdinand/this_boy_tab.html ]
"It seems he has all he'd ever need"
e|---------------------------------------------------------------------------|
B|---------------------------------------------------------------------------|
G|---------------------------------------------------------------------------|
D|---------------------------------------------------------------------------|
A|---------------------------------------------------------------------------|
E|--7-7-7-7p5h7-7-7-5h7p5h7--------------------------------------------------|
^ Reapeat through verse untill you come to this bit

"When it's time that he had another"
e|---------------------------------------------------------------------------|
B|---------------------------------------------------------------------------|
G|---------------------------------------------------------------------------|
D|---------------------------------------------------------------------------|
A|---------------------------------------------------------------------------|
E|--3(let ring)-------12(let ring)-------------------------------------------|

Chorus #1 for Chorus
Chorus #2 for "I want a car"

Repeat through whole song.


| /  slide up
| \  slide down
| h  hammer-on
| p  pull-off
| ~  vibrato
| +  harmonic
| x  Mute note
===============================================================================
Comments