Franz Ferdinand - Tell Her Tonight Chords & Tabs

 

Tell Her Tonight Chords & Tabs

Franz Ferdinand Chords & Tabs

Version: 2 Type: Tab 0 ratings
1 star 2 stars 3 stars 4 stars 5 stars
comments

Tell Her Tonight Tab

Franz Ferdinand
2. Tell Her Tonight
Standard Tuning


Intro/Verse1
e--7---7-7--7-9-10-9-7---7---7-7----------------|
b--8---8-8---------------8---8-8--11-10-8-7-----|
G--7---7-7---------------7---7-7----------------|
D--9---9-9---------------9---9-9----------------|
A-----------------------------------------------|
E-----------------------------------------------|

Only Bass on chorus

Bridge
e-----------------------------------------------|
b-----------------------------------------------|
G--7-4--7-4--7-4--7-4---10-7--10-7--10-7--10-7--|  x2
D-----------------------------------------------|
A-----------------------------------------------|
E-----------------------------------------------|

Verse2
e--7---7-7---------------7---7-7----------------|
b--8---8-8----R-E-S-T----8---8-8--R-E-S-T-------|
G--7---7-7---------------7---7-7----------------|
D--9---9-9---------------9---9-9----------------|
A-----------------------------------------------|
E-----------------------------------------------|

End
e-----------------------------------------------|
b-----------------------------------------------|
G--7-4--7-4--7-4--7-4---10-7--10-7--10-7--10-7--|
D-----------------------------------------------|
A-----------------------------------------------|
E-----------------------------------------------|
[ Tab from: http://www.guitartabs.cc/tabs/f/franz_ferdinand/tell_her_tonight_tab_ver_2.html ]
e-----------------------------------------------|
b-----------------------------------------------|
G--13-9--13-9--13-9--13-9-----------------------|
D-----------------------------------------------|
A-----------------------------------------------|
E-----------------------------------------------|

Verse1
I only watched her walk, but she saw it
I only heard her talk, but she saw it
I only touched her lips but she saw it
I only kissed her lips, but she saw it

Chorus
Gonna have to tell her tonight [x4]

Verse1
She only flicked her eyes, but I saw it
She only swung her hair, but I saw it
She only shook her hips, but I saw it
She only licked her lips, but I saw it

Chorus
Gonna have to tell her tonight [x4]

Bridge
Hey, I'll have to tell her, you tell her tonight, yeah
I'll have to tell her, tell her tonight, yeah
I'll have to tell her, to tell her tonight, yeah
I'll have to tell her, to tell her tonight

Verse2
I only held her hand, but she saw it
I only watched her walk, but she saw it
I only touched her neck but she saw it
I only kissed her lips, but she saw it

Chorus
Gonna have to tell her tonight [x4]

End
Hey, I'll have to tell her, you tell her tonight, yeah
Hey, I'll have to tell her, you tell her tonight, yeah
You have to tell her, you tell her tonight, oh yeah

Tabbed by Marco Polo mpsfender182@yahoo.com
Comments