Franz Ferdinand - Tell Her Tonight Chords & Tabs

 

Tell Her Tonight Chords & Tabs

Franz Ferdinand Chords & Tabs

Version: 2 Type: Bass Tab 0 ratings
1 star 2 stars 3 stars 4 stars 5 stars
comments

Tell Her Tonight Bass Tab

   
Franz Ferdinand - Tell Her Tonight


Tabbed By : ChrKr
e-mail: chrkr@gmx.at

Tuning: Standard


Intro & during verse: ("I Only Watched Her Walk But She Saw It...")

                                                           B
G|--------------------------------|--------------------------------|
D|--------------------------------|--------------------------------|
A|--------------------------------|--------------------------------|
E|--------------------------------|------------------------7/------|


   B E                   A         E                       B
G|--------------------------------|--------------------------------|
D|--------------------------------|--------------------------------|
A|-----------------------12\------|7-----7-------------------------| repeat
E|12-----12-12--------------------|------------------------7/------| 



Chorus: ("Gotta Have To Tell Her Tonight...")

  A               E       G        A               E        B
G|--------------------------------|--------------------------------|
D|7-----7-7---7-----------5---5---|7-----7-7---7-------------------|
A|----------------7---7-----------|----------------7---7-----------|
E|--------------------------------|-------------------------7/-----|

Verse again


Bridge: ("Gotta Tell Her, I Tell Her Tonight yeah...")
[ Tab from: http://www.guitartabs.cc/tabs/f/franz_ferdinand/tell_her_tonight_btab_ver_2.html ]
  G                           G#A  Bb                          A G#
G|--------------------------------|--------------------------------|
D|--------------------------------|--------------------------------|
A|--------------------------------|--------------------------------|
E|3-3-3-3-3-3-3-3-3-3-3-3-3-3-4-5-|6-6-6-6-6-6-6-6-6-6-6-6-6-6-5-4-|

  G                           G#A  Bb                      B
G|--------------------------------|--------------------------------|
D|--------------------------------|--------------------------------|
A|--------------------------------|--------------------------------|
E|3-3-3-3-3-3-3-3-3-3-3-3-3-3-4-5-|6-6-6-6-6-6-6-6-6-6-6-6-7/------|

Verse again


Last Part 
  G                           G#A  Bb                          B C
G|--------------------------------|--------------------------------|
D|--------------------------------|--------------------------------|
A|--------------------------------|--------------------------------|
E|3-3-3-3-3-3-3-3-3-3-3-3-3-3-4-5-|6-6-6-6-6-6-6-6-6-6-6-6-6-6-7-8-|


  C#                                 D     D#
G|---------------------------------|--------------------------------|
D|---------------------------------|--------------------------------|
A|---------------------------------|--------------------------------|
E|9-9-9-9-9-9-9-9-9-9-9-9-9-9-9-9-9|-10---11------------------------|
                                          let ring...


enjoy


| /  slide up
| \  slide down
| h  hammer-on
| p  pull-off
| ~  vibrato
| +  harmonic
| x  Mute note
===========================================================================
Comments