Franz Ferdinand - Take Me Out Chords & Tabs

 

Take Me Out Chords & Tabs

Franz Ferdinand Chords & Tabs

Version: 4 Type: Tab 0 ratings
1 star 2 stars 3 stars 4 stars 5 stars
comments

Take Me Out Tab

Title: Take Me Out
Artists: Franz Ferdinand
Transcribed by: Erin Cox

The Scotts finally give the world a band that doesn't include a bagpipe or
drinking insane amounts of alcohol being the focus of the lyrics. Anyway this
bands first single is transcribed here and is uncommonly reminiscent of Modest Mouse's "Float On." Enjoy!

Standard Tuning (EADGBE) in the key of E minor...

		X4
|-------------------|
|-------------------|
|-------------------|
|-------------------|
|-7-7-7-7-7-7-7-7---|
|-------------------|

+++For the sake of space and time the rest of the tab will only include the starting
note with the rhythm shown under it++++++++++++++=========
							           X4
|--------------------------------------------------------------------|
|--------------------------------------------------------------------|
|--------------------------------------------------------------------|
|--------------------------------------------------------------------|
|-10---------------9---------------10-------9-------7----------------|
|--------------------------------------------------------------------|
   1 & 2 & 3 & 4 & 1 & 2 & 3 & 4 &  1 & 2 & 3 & 4 & 1 & 2 & 3 & 4 &
                                                   ("&" is an upstrum)

|------------------------------------|
|------------------------------------|
|------------------------------------|
|------------------------------------|
|-10------12-------7-----------------|
|------------------------------------|
   1 & 2 & 3 & 4 & 1 & 2 & 3 & 4 &   

|-----------------------------------|
|-----------------------------------|
|-----------------------------------|
|-----------------------------------|
|-----------------------------------|
|-3-------5-------0-----------------|
  1 & 2 & 3 & 4 & 1 & 2 & 3 & 4 &   

				   X2
|------------------------------------|
|------------------------------------|
|------------------------------------|
|------------------------------------|
|-10--------------12-----------------|
|------------------------------------|
   1 & 2 & 3 & 4 & 1 & 2 & 3 & 4 &

		  X4
|-------------------|
|-------------------|
|-------------------|
|-------------------|
|-7-----------------|
|-------------------|   
  1 & 2 & 3 & 4 &   

That finishes the intro section, and yes he is just hitting one note throughout the
whole part! ;-)

|---------------------|
|---------------------|
|-9--9--9-7-9-7-7-7---|
|-9--9--9-7-9-7-7-7---|
|-7--7--7-7-7-7-7-7---|
|---------------------| 
  1  2  1 & 2 & 3 &
[ Tab from: http://www.guitartabs.cc/tabs/f/franz_ferdinand/take_me_out_tab_ver_4.html ]
	         X3   SLIGHT BENDY!
|------------------|-------------------------------------|
|---------------*--|------`-`-`-`-`-`-`-`-`-`------------|
|-12-9-9-9-7-9-9---|--11-`-------------------`-9---7-----|
|------------------|-------------------------------------|
|------------------|-------------------------------------|
|------------------|-------------------------------------|
                       1 & 2 & 3 & 4 & 1 & 2 & 3 & 4 &      
		
* The guitarist hits this note at different amounts
each time he plays it. I'll leave it up to you how you
want the feel of the song to be.

(1:24)
"I say don't you know?"
		     X2
|----------------------|------------------------|
|----------------------|------------------------|
|-9-------7-9-12-------|-12------10-12-14-------|
|-9-------7-9-12-------|-12------10-12-14-------|
|-7-------7-7-10-------|-10------10-10-12-------|
|----------------------|------------------------|
  1  2  3 & 4  & 5 &      1  2  3 &  4  & 5 &    

|--------------------------------|
|--------------------------------|
|-14-----------------------------|
|-14------12~14~14----12----12---|
|-12---14----------14----14------|
|--------------------------------|
   1 2 

		(This section is only played once during the song...so 
		 if didn't want to play this exactly and just put in your 
		 own interlude this would be the perfect place.%%)

                                 X3
|----------------------------------|---------------------|
|----------------------------------|---------------------|
|----------------------------------|---------------------|
|----------------------------------|-------15-------15---|
|-11~12-16-11~12-16-9^^^^^^^^^^^---|-11~12----11~12------|
|----------------------------------|---------------------|

"I know I won't be leavin' with youuuuu"
pm.......    ...........     .......
|---------------------------------------------------------|
|---------------------------------------------------------|
|-7-7-7-7-7--14-14-14-14-14--7-7-7-7-7--12-12--14-14-14---|
|-7-7-7-7-7--14-14-14-14-14--7-7-7-7-7--12-12--14-14-14---|
|-5-5-5-5-5--12-12-12-12-12--5-5-5-5-5--10-10--12-12-12---|
|---------------------------------------------------------|
  1 & 2 & 3

_-`+=+`-_ That's all of the song's sections...it goes on from their but you just
repeat the patterns. Now throw on that kilt, put down the hagis, and play this
cool song!_-+=+`-_

the very end
|-----|
|-----|
|-----|
|-2---|
|-2---|
|-0---|

	Symbol key:
		` = bend
		^ = vibrato (shake your finger loosely in the fret)
		~ = hammer on / pull off
Comments