Franz Ferdinand - Take Me Out Chords & Tabs

 

Take Me Out Chords & Tabs

Franz Ferdinand Chords & Tabs

Version: 5 Type: Bass Tab 0 ratings
1 star 2 stars 3 stars 4 stars 5 stars
comments

Take Me Out Bass Tab

Tabber: Lyingfromyou118
Song: Take Me Out
Band: Franz Ferdinand                                    

This song has 3 guitars! Luckily only 1 bass, and here it is, 100% correct.

  Q=140
 4/4
  
|-9-9-|-9-9-9-9-9-9-9-|-9-9-9-9-9-9-9-9-|-9-9-9-9-9-9-9-9-|-9-9-9-9-9-9-9-9-|
|-----|---------------|-----------------|-----------------|-----------------|
|-----|---------------|-----------------|-----------------|-----------------|
|-----|---------------|-----------------|-----------------|-----------------|


|-----------------|-7-7-7-7-7-7-7-7-|---------4-4-4-4-|-9-9-9-9-9-9-9-9-|
|-7-7-7-7-7-7-7-7-|-----------------|-5-5-5-5---------|-----------------|
|-----------------|-----------------|-----------------|-----------------|
|-----------------|-----------------|-----------------|-----------------|


|-----------------|-7-7-7-7-7-7-7-7-|---------4-4-4-4-|-9-9-9-9-9-9-9-9-|
|-7-7-7-7-7-7-7-7-|-----------------|-5-5-5-5---------|-----------------|
|-----------------|-----------------|-----------------|-----------------|
|-----------------|-----------------|-----------------|-----------------|


|-----------------|-7-7-7-7-7-7-7-7-|---------4-4-4-4-|-9-9-9-9-9-9-9-9-|
|-7-7-7-7-7-7-7-7-|-----------------|-5-5-5-5---------|-----------------|
|-----------------|-----------------|-----------------|-----------------|
|-----------------|-----------------|-----------------|-----------------|


|-----------------|-7-7-7-7-7-7-7-7-|---------4-4-4-4-|-9-9-9-9-9-9-9-9-|
|-7-7-7-7-7-7-7-7-|-----------------|-5-5-5-5---------|-----------------|
|-----------------|-----------------|-----------------|-----------------|
|-----------------|-----------------|-----------------|-----------------|


|-----------------|-9-9-9-9-9-9-9-9-|-----------------|-----------------|
|-5-5-5-5-7-7-7-7-|-----------------|-5-5-5-5-7-7-7-7-|-----------------|
|-----------------|-----------------|-----------------|-7-7-7-7-7-7-7-7-|
|-----------------|-----------------|-----------------|-----------------|


|-----------------|-----------------|-----------------|-----------------|
|-5-5-5-5-5-5-5-5-|-----------------|-3-3-3-3-3-3-3-3-|-----------------|
|-----------------|-5-5-5-5-5-5-5-5-|-----------------|-3-3-3-3-3-3-3-3-|
|-----------------|-----------------|-----------------|-----------------|

[ Tab from: http://www.guitartabs.cc/tabs/f/franz_ferdinand/take_me_out_btab_ver_5.html ]
                                  *Gradually slows down right here
|-----------------|-----------------|-----------------|-----------------|
|-----------------|-----------------|-----------------|-----------------|
|-7-7-7-7-7-7-7-7-|-7-7-7-7-7-7-7-*7|-7-7-7-7-7-7-7-7-|-7-7-7-7-7-7-7-7-|
|-----------------|-----------------|-----------------|-----------------|


|-------------|-------------|-------------|-------------||------------------|
|-------------|-------------|-------------|-------------||o-------------5---|
|-7--7--7--7--|-7--7--7--7--|-7--7--7--7--|-7--7--7--7--||o-7--7--7---7-----|
|-------------|-------------|-------------|-------------||------------------|


|--------------|--------------|--------------------||
|------------5-|--------------|-------------------o||
|-7--7--7--7---|--------------|-------------------o||
|--------------|-5--5--5--5h6-|-7--7--7----7-5-----||


                                                              5x
||---------------|--------------|--------------|--------------||
||o------------5-|------------5-|--------------|-------------o||
||o-7--7--7--7---|-7--7--7--7---|--------------|------------5o||
||---------------|--------------|-5--5--5--5h6-|-7--7--7--7---||


                                                                   4x
|-------------|-------------||------------------|------------------||
|-------------|-------------||o-7-7-5-5-4-4-----|-----------------o||
|-7--7--7--7--|-7--7--7--7--||o-------------7-5-|-3-3-3-3S5-5-3-5-o||
|-------------|-------------||------------------|------------------||


                                                              3x
||---------------|--------------|--------------|--------------||
||o------------5-|------------5-|--------------|-------------o||
||o-7--7--7--7---|-7--7--7--7---|--------------|------------5o||
||---------------|--------------|-5--5--5--5h6-|-7--7--7--7---||


|--------------|--------------|--------------|----------|
|------------5-|------------5-|--------------|----------|
|-7--7--7--7---|-7--7--7--7---|--------------|----------|
|--------------|--------------|-5--5--5--5h6-|-7--------|


                                                              3x
||---------------|--------------|--------------|--------------||
||o------------5-|------------5-|--------------|-------------o||
||o-7--7--7--7---|-7--7--7--7---|--------------|------------5o||
||---------------|--------------|-5--5--5--5h6-|-7--7--7--7---||


|-------------|-------------|-------------|------|
|-------------|-------------|-------------|------|
|-7--7--7--7--|-7--7--7--7--|-7--7--7--7--|-7----|
|-------------|-------------|-------------|------|


Awesome program for tabbing on any instrument and making midis.

*****************************************************************************
* Generated using Power Tab Editor by Brad Larsen - http://powertab.guitarnetwork.org *
*****************************************************************************
Comments