Franz Ferdinand - Take Me Out Chords & Tabs

 

Take Me Out Chords & Tabs

Franz Ferdinand Chords & Tabs

Version: 2 Type: Bass Tab 0 ratings
1 star 2 stars 3 stars 4 stars 5 stars
comments

Take Me Out Bass Tab

   
Franz Ferdinand - Take Me Out

Tabbed By : ChrKr
e-mail: chrkr@gmx.at

Tuning: Standard


  E
G|9-9-9-9-9-9-9-9-9-9-9-9-9-9-9-9-|9-9-9-9-9-9-9-9-9-9-9-9-9-9-9-9-|
D|--------------------------------|--------------------------------|
A|--------------------------------|--------------------------------|
E|--------------------------------|--------------------------------|    
  

                                                               So if you're
  A               D                G       B       E
G|----------------7-7-7-7-7-7-7-7-|----------------------------------------|
D|7-7-7-7-7-7-7-7-----------------|5-5-5-5-9-9-9-9-14-14-14-14-14-14-14-14-|
A|--------------------------------|----------------------------------------|
E|--------------------------------|----------------------------------------|
  lonely...                                                              4x

  G       A       E                G       A       E
G|--------------------------------|--------------------------------|
D|5-5-5-5-7-7-7-7-----------------|5-5-5-5-7-7-7-7-----------------|
A|----------------7-7-7-7-7-7-7-7-|----------------7-7-7-7-7-7-7-7-|
E|--------------------------------|--------------------------------|
  Ah Ah Ah

  G               D                F               C
G|----------------7-7-7-7-7-7-7-7-|----------------5-5-5-5-5-5-5-5-|
D|5-5-5-5-5-5-5-5-----------------|3-3-3-3-3-3-3-3-----------------|
A|--------------------------------|--------------------------------|
E|--------------------------------|--------------------------------|
 "I know I ..."                                             "..with


  E       
G|--------------------------------|--------------------------------|
D|--------------------------------|--------------------------------|
A|7-7-7-7--7--7---7---7---7---7---|7---7---7---7---7---7---7---7---|
E|--------------------------------|--------------------------------|
  you..."             slow down...
                                         let every 4th one ring
 
  E       
G|--------------------------------|
D|--------------------------------|
A|7---7---7---7---7---7---7---7---|
E|--------------------------------|


 
Verse:
  E             G   E             G    
G|------------------------------------|
D|--------------5-5---------------5-5-|
A|7---7---7---7-----7---7---7---7-----|
E|------------------------------------|
  "I said don't you know..."            \
                                         \
                                          8x
  A                 B                    /
G|------------------------------------| /
D|7---7---7---7-7-7-9---9---9---9-9-9-|
A|------------------------------------|
E|------------------------------------|

 
  E       
G|--------------------------------|--------------------------------|
D|--------------------------------|--------------------------------|
A|7---7---7---7---7---7---7---7---|7---7---7---7---7---7---7---7---|
E|--------------------------------|--------------------------------|
  let every 4th ring again

[ Tab from: http://www.guitartabs.cc/tabs/f/franz_ferdinand/take_me_out_btab_ver_2.html ]
  A   G   F#  E   C       D        A   G   F#  E   C       D
G|--------------------------------|--------------------------------|
D|7-7-5-5-4-4---------------------|7-7-5-5-4-4---------------------|
A|------------7-7-3-3-3-3-5-5-5-5-|------------7-7-3-3-3-3-5-5-5-5-| 2x
E|--------------------------------|--------------------------------|    
 "I know I won't be leaving here..."       after last one: "...with


  E             G   E             G    
G|------------------------------------|
D|--------------5-5---------------5-5-|
A|7---7---7---7-----7---7---7---7-----|
E|------------------------------------|
  you..."                               \
                                         \
                                          3x
  A                 B                    /  
G|------------------------------------| /
D|7---7---7---7-7-7-9---9---9---9-9-9-|
A|------------------------------------|
E|------------------------------------|



  E             G   E             G    
G|------------------------------------|
D|--------------5-5---------------5-5-|
A|7---7---7---7-----7---7---7---7-----|
E|------------------------------------|
 "Eyes move this could die..."                              
                                        
                                        
  A                 B                    
G|------------------------------------| 
D|7---7---7---7-7-7-9-----------------|
A|------------------------------------|
E|------------------------------------|
 "Come on...             ...take me out"


  E             G   E             G    
G|------------------------------------|
D|--------------5-5---------------5-5-|
A|7---7---7---7-----7---7---7---7-----|
E|------------------------------------|
                                          


  A                 B                    
G|------------------------------------| 
D|7---7---7---7-7-7-9---9---9---9-9-9-|
A|------------------------------------|
E|------------------------------------|

 
  E       
G|--------------------------------|--------------------------------|
D|--------------------------------|--------------------------------|
A|7---7---7---7---7---7---7---7---|7---7---7---7---7---7---7---7---|
E|--------------------------------|--------------------------------|
  let every 4th ring again



  A   G   F#  E   C       D        A   G   F#  E   C       D
G|--------------------------------|--------------------------------|
D|7-7-5-5-4-4---------------------|7-7-5-5-4-4---------------------|
A|------------7-7-3-3-3-3-5-5-5-5-|------------7-7-3-3-3-3-5-5-5-5-| 2x
E|--------------------------------|--------------------------------|    
 "I know I won't be leaving here..."       after last one: "...with

  E       
G|--------------------------------|--------------------------------|
D|--------------------------------|--------------------------------|
A|7---7---7---7---7---7---7---7---|7---7---7---7---7---------------|
E|--------------------------------|--------------------------------|
  let every 4th ring again                         let ring
  you."


enjoy
Comments