Franz Ferdinand - Outsiders Chords & Tabs

 

Outsiders Chords & Tabs

Franz Ferdinand Chords & Tabs

Version: 1 Type: Bass Tab

Outsiders Bass Tab

   
Franz Ferdinand
Outsiders

Tuning-Standard(G,D,A,E)

Intro

|--------7---5---7---5---7---5---7---5---------------------------8---8-|
|----------7-------7-------7-------7-----8---6---8---6---8---6---------|
|------5-------5-------5-------5-----------8-------8-------8-------6---|
|-12/----------------------------------6-------6-------6-------6-------|

Verse

P1
|---7---5---7---5---7---5---7---5---7---5---7---5---7---5---7-----|
|-----7-------7-------7-------7-------7-------7-------7-------5-7-|
|-5-------5-------5-------5-------5-------5-------5-------5-------|
|-----------------------------------------------------------------|

----------------------------8---8-|
----8---6---8---6---8---6---------|
------8-------8-------8-------6---|
--6-------6-------6-------6-------|

P2
|---7---5---7---5---7---5---7---5---7---5---7---5---7---5---7-----|
|-----7-------7-------7-------7-------7-------7-------7-------5-7-|
|-5-------5-------5-------5-------5-------5-------5-------5-------|
|-----------------------------------------------------------------|

------------------------------------------------------------8---8-|
----8---6---8---6---8---6---8---6---8---6---8---6---8---6---------|
------8-------8-------8-------8-------8-------8-------8-------6---|
--6-------6-------6-------6-------6-------6-------6-------6-------|

Bridge

|---7---5-|x4
|-----7---|
|-5-------|
|---------|


P1
|---7---5---7---5---7---5---7---5---7---5---7---5---7---5---7-----|
|-----7-------7-------7-------7-------7-------7-------7-------5-7-|
|-5-------5-------5-------5-------5-------5-------5-------5-------|
|-----------------------------------------------------------------|

----------------------------8---8-|
----8---6---8---6---8---6---------|
------8-------8-------8-------6---|
--6-------6-------6-------6-------|

P2
|---7---5---7---5---7---5---7---5---7---5---7---5---7---5---7-----|
|-----7-------7-------7-------7-------7-------7-------7-------5-7-|
|-5-------5-------5-------5-------5-------5-------5-------5-------|
|-----------------------------------------------------------------|

------------------------------------------------------------8---8-|
----8---6---8---6---8---6---8---6---8---6---8---6---8---6---------|
------8-------8-------8-------8-------8-------8-------8-------6---|
--6-------6-------6-------6-------6-------6-------6-------6-------|


Bridge

|---7---5-|x4
|-----7---|
|-5-------|
|---------|

Chorus

|-----------------------------------------------------------------|x2
|-----------------------------------------------------------------|
|-----------------------------------------------------------------|
|-5-5-5-5-5-5-5-5-5-5-5-5-5-5-5-5-2-2-2-2-2-2-2-2-2-2-2-2-2-2-2-2-|

------------------------------------------------------------------|
------------------------------------------------------------------|
------------------------------------------------------------------|
--10-10-10-10-10-10-10-10-10-10-10-10-10-10-10-10-2-2-2-2-2-2-2-2-|

----------------|
----------------|
----------------|
2-2-2-2-2-2-2-2-|

Verse2
[ Tab from: http://www.guitartabs.cc/tabs/f/franz_ferdinand/outsiders_btab.html ]
P1
|---7---5---7---5---7---5---7---5---7---5---7---5---7---5---7-----|
|-----7-------7-------7-------7-------7-------7-------7-------5-7-|
|-5-------5-------5-------5-------5-------5-------5-------5-------|
|-----------------------------------------------------------------|

----------------------------8---8-|
----8---6---8---6---8---6---------|
------8-------8-------8-------6---|
--6-------6-------6-------6-------|

P2
|---7---5---7---5---7---5---7---5---7---5---7---5---7---5---7-----|
|-----7-------7-------7-------7-------7-------7-------7-------5-7-|
|-5-------5-------5-------5-------5-------5-------5-------5-------|
|-----------------------------------------------------------------|

------------------------------------------------------------8---8-|
----8---6---8---6---8---6---8---6---8---6---8---6---8---6---------|
------8-------8-------8-------8-------8-------8-------8-------6---|
--6-------6-------6-------6-------6-------6-------6-------6-------|

Bridge

|---7---5-|x4
|-----7---|
|-5-------|
|---------|

Chorus2

|--------------------------------------------------------------------------------|
|--------------------------------------------------------------------------------|
|--------------------------------------------------------------------------------|
|-9h10101010-9h10101010-9h10101010-9h10101010--4h5555-4h5555-4h5555-4h5555-|

-----------------------------------------------------------------------------------|
-----------------------------------------------------------------------------------|
-----------------------------------------------------------------------------------|
--2h3333-2h3333-2h3333-2h3333-9h10101010-9h10101010-9h10101010-9h10101010---|

----------------------------------------------------------|
----------------------------------------------------------|
----------------------------------------------------------|
--4h5555-4h5555-4h5555-4h5555-2h3333-2h3333-2h3333-2h3333-|


Verse3

|--------7---5---7---5---7---5---7---5---------------------------8---8-|x2
|----------7-------7-------7-------7-----8---6---8---6---8---6---------|
|------5-------5-------5-------5-----------8-------8-------8-------6---|
|-12/----------------------------------6-------6-------6-------6-------|

P1
|---7---5---7---5---7---5---7---5---7---5---7---5---7---5---7-----|
|-----7-------7-------7-------7-------7-------7-------7-------5-7-|
|-5-------5-------5-------5-------5-------5-------5-------5-------|
|-----------------------------------------------------------------|

----------------------------8---8-|
----8---6---8---6---8---6---------|
------8-------8-------8-------6---|
--6-------6-------6-------6-------|

P2
|---7---5---7---5---7---5---7---5---7---5---7---5---7---5---7-----|
|-----7-------7-------7-------7-------7-------7-------7-------5-7-|
|-5-------5-------5-------5-------5-------5-------5-------5-------|
|-----------------------------------------------------------------|

------------------------------------------------------------8---8-|
----8---6---8---6---8---6---8---6---8---6---8---6---8---6---------|
------8-------8-------8-------8-------8-------8-------8-------6---|
--6-------6-------6-------6-------6-------6-------6-------6-------|