Franz Ferdinand - Michael Chords & Tabs

 

Michael Chords & Tabs

Franz Ferdinand Chords & Tabs

Version: 3 Type: Tab 0 ratings
1 star 2 stars 3 stars 4 stars 5 stars
comments

Michael Tab

   
borrisuk@hotmail.com

A= Up-stroke
V= Down-stroke
/= slide up
/= slide down

Intro:

E|--------------------------------------------------------------------|
B|--------------------------------------------------------------------|
D|----------7-7-8-8----------7-7-7-8-8--------------------------------|
A|-10-10-10---------10-10-10--------------------8-8-8-----------------|
E|-------------------------------------10-10-10-------10-10-10-10-10--|

E|---------------------------------------------------------------------|
B|---------------------------------------------------------------------|
G|---------------------------------------------------------------------|
D|----------------7-7-7-8-8----------7-7-7-8-8-------------------------|
A|-------10-10-10-----------10-10-10-----------8-8-8-7-7-7-------------|
E|-8-6-----------------------------------------------------10-10-10-10-|

E|---------------------------------------------------------------------|
B|---------------------------------------------------------------------|
G|----------------------------7-7------------10-10-10-10-10-9-7/12-12--|
D|------------------7-7-7-8-8------------7-8---------------------------|
A|---------10-10-10----------------10-10-------------------------------|
E|-10-8-7--------------------------------------------------------------|

E|-----------------|
B|-----------------|
G|-12-12-12-12-12--|
D|-----------------|
A|-----------------|
E|-----------------|

Bridge:
[ Tab from: http://www.guitartabs.cc/tabs/f/franz_ferdinand/michael_tab_ver_3.html ]
E|----------------------------------------------------------------------|
B|----------------------------------------------------------------------|
G|----------------------------------------------------------------------|
D|----------------------------------------------------------------------|
A|----------------------------------------------------------------------|
E|-3-3-3-3-3-3-3-3-5-5-5-5-5-5-5-5-1-1-1-1-1-1-1-1-3-3-3-3-1-2----------|

E|----------------------------------------------------------------------|
B|----------------------------------------------------------------------|
G|----------------------------------------------------------------------|
D|----------------------------------------------------------------------|
A|----------------------------------------------------------------------|
E|-3-3-3-3-3-3-3-3-5-5-5-5-5-5-5-5-1-1-1-1-1-1-1-1-3-3-3-3-1-2----------|

Verse:

E|-3-3--5-5--1-1--3--1-2-|
B|-3-3--5-5--1-1--3--1-2-|
G|-4-4--6-6--2-2--4--2-3-|
D|-5-5--7-7--3-3--5--3-4-|
A|-5-5--7-7--3-3--5--3-4-|
E|-3-3--5-5--1-1--3--1-2-|
   A A  A A  A A  A  V V

Chorus:

E|-5-5-5-5-5-5-5-5--10-10-10-10-10-10-10-10--3-3-3-3-3-3-3-3-|
B|-7-7-7-7-7-7-7-7--10-10-10-10-10-10-10-10--3-3-3-3-3-3-3-3-|
G|-7-7-7-7-7-7-7-7--10-10-10-10-10-10-10-10--4-4-4-4-4-4-4-4-|
D|-7-7-7-7-7-7-7-7--10-10-10-10-10-10-10-10--5-5-5-5-5-5-5-5-|
A|-5-5-5-5-5-5-5-5---8--8--8--8--8--8--8--8--5-5-5-5-5-5-5-5-|
E|-5-5-5-5-5-5-5-5---8--8--8--8--8--8--8--8--3-3-3-3-3-3-3-3-|
   A V A V A V A V   A  V  A  V  V  V  A  V  A V A V V V A V

Bridge .2:

E|-----------------------------------------------------------------|
B|-----------------------------------------------------------------|
G|-----------------------------------------------------------------|
D|------------------------7-7-7-7-7-7-7-7-8-8-8-8-8-8-8-8-10-10-10-|
A|10-10-10-10-10-10-10-10------------------------------------------|
E|-----------------------------------------------------------------|

E|----------------|
B|----------------|
G|----------------|
D|-10-10-10-10-10-|
A|----------------|
E|----------------|

ORDER

intro
bridge
verse     x2
bridge
chorus    x2
intro
bridge
Verse
Chorus
bridge .2  x2
Chorus
Comments