Franz Ferdinand - Michael Chords & Tabs

 

Michael Chords & Tabs

Franz Ferdinand Chords & Tabs

Version: 2 Type: Tab 0 ratings
1 star 2 stars 3 stars 4 stars 5 stars
comments

Michael Tab

   
Band - Franz Ferdinand
Song - Michael

E|------------------------|------------------------|------------------------|
B|------------------------|------------------------|------------------------|
G|------------------------|------------------------|------------------------|
D|-4--4--4--6--6--6--7--7-|-4--4--4--6--6--6--7--7-|------------------------|
A|------------------------|------------------------|-4--4--4--7--7--7--4--4-|
E|------------------------|------------------------|------------------------|



E|------------------------|------------------------|------------------------|
B|------------------------|------------------------|------------------------|
G|------------------------|------------------------|------------------------|
D|------------------------|-4--4--4--6--6--6--7--7-|-4--4--4--6--6--6--7--7-|
A|-4--4--4--4--4--4-------|------------------------|------------------------|
E|-------------------7--5-|------------------------|------------------------|



E|------------------------|------------------------|------------------------|
B|------------------------|------------------------|------------------------|
G|------------------------|------------------------|------------------------|
D|------------------------|------------------------|-4--4--4--6--6--6--7--7-|
A|-7--7--7--6--6--6--4--4-|-4--4--4--4--4--4-------|------------------------|
E|------------------------|-------------------7--5-|------------------------|


[ Tab from: http://www.guitartabs.cc/tabs/f/franz_ferdinand/michael_tab_ver_2.html ]
E|---------------------|------------------|---------------------|
B|---------------------|-5--5--5--5--4----|s7--7--7--7--7--7----|
G|-6--6----------------|----------------6-|---------------------|
D|-------4--4--6--6--7-|------------------|---------------------|
A|---------------------|------------------|---------------------|
E|---------------------|------------------|---------------------|


E|------------------------|------------------------|------------------------|
B|------------------------|------------------------|------------------------|
G|------------------------|------------------------|------------------------|
D|-4--4--4--4--4--4--4--4-|-6--6--6--6--6--6--6--6-|-2--2--2--2--2--2--2--2-|
A|-4--4--4--4--4--4--4--4-|-6--6--6--6--6--6--6--6-|-2--2--2--2--2--2--2--2-|
E|-2--2--2--2--2--2--2--2-|-4--4--4--4--4--4--4--4-|-0--0--0--0--0--0--0--0-|


E|------------------------|------------------------|------------------------|
B|------------------------|------------------------|------------------------|
G|------------------------|------------------------|------------------------|
D|-4--4--4--4--4--4--4--4-|-4--4--4--4--4--4--4--4-|-6--6--6--6--6--6--6--6-|
A|-4--4--4--4--4--4--4--4-|-4--4--4--4--4--4--4--4-|-6--6--6--6--6--6--6--6-|
E|-2--2--2--2--2--2--2--2-|-2--2--2--2--2--2--2--2-|-4--4--4--4--4--4--4--4-|



E|------------------------|------------------------|
B|------------------------|------------------------|
G|------------------------|------------------------|
D|-2--2--2--2--2--2--2--2-|-4--4--4--4--4--4--4--4-|
A|-2--2--2--2--2--2--2--2-|-4--4--4--4--4--4--4--4-|
E|-0--0--0--0--0--0--0--0-|-2--2--2--2--2--2--2--2-|


Beat	   1	 2     3     4
G1	   *  *  *  *  *  *  *  *
G2	         *	     * 
	E|------------------------|
	B|------------------------|
	G|------------------------|
	D|-2--2--2--2--2--2--2--2-|
	A|-2--2--2--2--2--2--2--2-|
	E|-0--0--0--0--0--0--0--0-|


G|------------|------------|------------|------------|
D|------------|------------|------------|------------|
A|------------|-7--7--7--7-|-9--9--9--9-|------------|
E|-4--4--4--4-|------------|------------|-2--2--2--2-|
Comments