Franz Ferdinand - Jacqueline Chords & Tabs

 

Jacqueline Chords & Tabs

Franz Ferdinand Chords & Tabs

Version: 3 Type: Tab 0 ratings
1 star 2 stars 3 stars 4 stars 5 stars
comments

Jacqueline Tab

this is by kevin herman i didnt feel like registering, i didnt get the beginning, its boring anyway

this is the bass part after "that you are staring from"......

g|----------------------3-3-3-3----|
d|--------------1-1-1-1------------|   x2
a|3-3-3-3-3-3-3--------------------|
e|---------------------------------|

e|--------------------------------------------------------------|
b|---------------4-4-4------------------------4-4-4-------------|
g|----------5-5-5-----5-5-5--------------5-5-5-----5-5----------|
d|-----5-5-5---------------5-5------5-5-5-------------5-5-------|
a|3-3-3------------------------3-3-3----------------------------|
e|--------------------------------------------------------------|

e|--------------------------------------------------------------|
b|8-8-4-6b---8-8-4-6b---8-8-4-6b-6-6-6-4-4-3-3------x2----------|
g|7-7-3-5b---7-7-3-5b---7-7-3-5b-5-5-5-3-3-2-2------x2----------|
d|--------------------------------------------------------------|
a|--------------------------------------------------------------|
e|--------------------------------------------------------------|

e|--------------------------------------------------------------|
b|--------------------------------------------------------------|
g|--------------------------------------------------------------|
d|-----------------3-5-6-5-4---------x4-------------------------|
a|3-3-3-6-3-3-3-5-6----------6-5-----x4-------------------------|
e|--------------------------------------------------------------|

e|-3-----3------------------------3-----3-3----------------------------|
b|-4-----4------------------------4-----4-4----------------------------|
g|-5-----5-------8-8-7-7-7--------5-----5-5------8-8-7-7-7-------------|
d|-5-----5-------x-x-x-x-x--------5-----5-5------x-x-x-x-x-------------|
a|---------------6-6-5-5-5-----------------------6-6-5-5-5-------------|
e|---------------------------------------------------------------------|            \
  It's always better on holiday   so much better on holiday.....        x2

e|-3-----3------------------------3-----3-3----------------------------|            /
b|-4-----4------------------------4-----4-4----------------------------|
g|-5-----5-------8-8-7-7-7--------5-----5-5------8-8-7-7-7-------------|
d|-5-----5-------x-x-x-x-x--------5-----5-5------x-x-x-x-x-------------|
a|---------------6-6-5-5-5-----------------------6-6-5-5-5-------------|
e|---------------------------------------------------------------------|
  That's why we always work when         we need the money......
[ Tab from: http://www.guitartabs.cc/tabs/f/franz_ferdinand/jacqueline_tab_ver_3.html ]
e|-3---------------------4--------------------------6------|
b|-4---------------------4--------------------------6------|
g|-5---------------------5--------------------------7------|
d|-5---------------------6--------------------------8------|
a|-3---------------------6--------------------------8------|
e|---------------------------------------------------------|
 Gregor was down again said  cmon kick me again, said im so drunk....

e|-6---------------4------6--------------6---------3-------|
b|-6---------------4------6--------------6---------3-------|
g|-7---------------5------7--------------7---------4-------|
d|-8---------------6------8--------------6---------5-------|
a|-8---------------6------8--------------8---------5-------|
e|---------------------------------------------------------|
  come one you gutless    yeah im alive  im alive   well im alive

e|-----------3---------------------4----------6-----------3-|
b|-----------5---------------------4----------6-----------5-|
g|-----------5---------------------5----------7-----------5-|
d|-----------4---------------------6----------8-----------4-|
a|-----------3---------------------6----------8-----------3-|
e|----------------------------------------------------------|
  And how i know it   but for the chips and freedom i could die

e|--------------------------------------------------------|
b|-8-8-4-6b---8-8-4-6b---8-8-4-6b-6-6-6-4-4-3-3-----------|
g|-7-7-3-5b---7-7-3-5b---7-7-3-5b-5-5-5-3-3-2-2-----------|
d|--------------------------------------------------------|
a|-------------------------------------------------x2-----|
e|--------------------------------------------------------|

    And then the "ts always better on holiday" part
                 (not this ||)
                           \/

e|-------------------------------------------------------------------------|
b|--------------------------------4-4-4------------------------4-4-4-------|
g|---------------------------5-5-5-----5-5-5--------------5-5-5-----5-5----|
d|-3---5-6-8------------5-5-5---------------5-5------5-5-5-------------5-5-|
a|-3---5-6-8-------3-3-3------------------------3-3-3----------------------|
e|-1---3-4-6---------------------------------------------------------------|

e|-------------------------------------------------------------|
b|-8-8-8-8-8-4-6-6-6-6-------8-8-8-8-8-4-6-6-6-6---------------|
g|-7-7-7-7-7-3-5-5-5-5-------7-7-7-7-7-3-5-5-5-5---------------|
d|-------------------------------------------------------x2----|
a|-------------------------------------------------------------|
e|-------------------------------------------------------------|
 and then another "its always better on holiday part"

              And thats it, and Taylor L is a gay shit head
Comments