Franz Ferdinand - Im Your Villain Chords & Tabs

 

Im Your Villain Chords & Tabs

Franz Ferdinand Chords & Tabs

Version: 1 Type: Tab 0 ratings
1 star 2 stars 3 stars 4 stars 5 stars
comments

Im Your Villain Tab

   
this song was from The Frank Skinner Show, and one of Franz's new songs for 2005
Tabbed by Matt, TheVinesRule.

Intro:
|-x-x---x-x---x----x-x---x-x---x-x--|-x-x---x-x---x----x-x---x-x---x-x--|
|-7-7---7-7---7----7-7---7-7---7-7--|-5-5---5-5---5----5-5---5-5---5-5--|
|-7-7---7-7---7----7-7---7-7---7-7--|-6-6-x-6-6-x-6----6-6-x-6-6-x-6-6--|
|-7-7-x-7-7-x-7----7-7-x-7-7-x-7-7--|-7-7-x-7-7-x-7----7-7-x-7-7-x-7-7--|----|
|-x-x-x-x-x-x-x----x-x-x-x-x-x-x-x--|-7-7-x-7-7-x-7----7-7-x-7-7-x-7-7--|    |
|-----x-----x----------x-----x------|-x-x---x-x---x----x-x---x-x---x-x--|    |   
                                                                             |    
Riff 1:                                                                      |  
|-----------------------------------|-----------------------------------|    |  
|--------------10~------------------|-------------10~-------------------|    |\ 
|--7--9~--10----------1010--9--7~---|--7--9~--10---------9~--7\2--------|    | \ 
|-----------------------------------|-----------------------------------|----|----Intro   
|-----------------------------------|-----------------------------------|    | /  
|-----------------------------------|-----------------------------------|    |/  
                                                                             | 
Riff 2:                                                                      |        
|-----------------------------------|-----------------------------------|    | 
|-----------------------------------|-----------------------------------|    |   
|---5-7-5------------5-7-5----------|---5-7-5------------5-7-5-----7^---|    |
|-7-------7-5-7~---7-------7-5-7~---|-7-------7-5-7~---7-------7-5------|----|   
|-----------------------------------|-----------------------------------|    
|-----------------------------------|-----------------------------------|   

Riff 3:
|-----------------------------------|
|-----------------------10----------|
|-10-9---10-9---7-9--10----9~--7\2--|
|-----------------------------------|
|-----------------------------------|
|-----------------------------------|

Chorus:
  G#5            F5
|----------------------------------------------|
|----------------------------------------------|
|----------------------------------------------|
|-66666666666666-1515151515151515151515151515--|
|-66666666666666-1515151515151515151515151515--|
|-44444444444444-1313131313131313131313131313--|
[ Tab from: http://www.guitartabs.cc/tabs/f/franz_ferdinand/im_your_villain_tab.html ]
Riff 4:
|-x-x--x-x-x--x-x-x--x-x-x-x-x-x---x-x--x-x-x--x-x-x--x-x-x-x-x-x--|
|-5-5--5-5-5--5-5-5--5-5-5-4-4-3---2-2--2-2-2--2-2-2--2-2-2-4-4-3--|
|-6-6--6-6-6--6-6-6--6-6-6-5-5-4---3-3--3-3-3--3-3-3--3-3-3-5-5-4--|
|-7-7--7-7-7--7-7-7--7-7-7-6-6-5---4-4--4-4-4--4-4-4--4-4-4-6-6-5--|
|-7-7--7-7-7--7-7-7--7-7-7-6-6-5---4-4--4-4-4--4-4-4--4-4-4-6-6-5--|
|-x-x--x-x-x--x-x-x--x-x-x-x-x-x---x-x--x-x-x--x-x-x--x-x-x-x-x-x--|

Solo:
|---------------------------------------------------------------|
|---------------------------------------------------------------|
|-18181818-16161616-14141414-13131313-131113111311131113111311--|
|---------------------------------------------------------------|
|---------------------------------------------------------------|
|---------------------------------------------------------------|x2 (end quick bit x2)

Outro:
|-x-x-x-x-x-x-x-x-x-x-x-x-x-x-x-x-2--------------------------------|
|-5-5-x-x-x-5-5-x-5-5-x-x-x-5-5-x-2--------------------------------|
|-6-6-x-x-x-6-6-x-6-6-x-x-x-6-6-x-3--------------------------------|
|-7-7-x-x-x-7-7-x-6-6-x-x-x-6-6-x-4--------------------------------|
|-7-7-x-x-x-7-7-x-x-x-x-x-x-x-x-x-4--------------------------------|
|-----x-x-x-----x-----x-x-x-----x----------------------------------|


Verse 1:
     Dm                        Am *Riff 2*
When passion emerged, I'm your villian 
    Dm                          Am *Riff 2*
You toss in a word and I'm your villian 


    G                  Dm
But serious, you're so serious 
       F                 G
Like a waiter hating the rich 
                 Cm
But taking their tips 


Chorus:
G#                             
  If I could laugh, I'd love you 
F5                                 G#5
  If I could smile at anything you said 

  We could be laughing lovers 
F5                         G#5
  we can both be miserable instead 

  If I could love, I'd love you 
F5                             G#5  
  If I could love like anybody else 

  We could be living lovers 
F5
  [...]
     G#5
  in bed 
     G
  In bed 
     F#   D
  In bed, yeah... 

*Riff 3*
*Riff 2*

Dm                        Am *Riff 2*
No one else, and I'm your villian 
      Dm                             Am *Riff 2*
No, I don't give a damn, if I'm your villian 

G                  Dm
Serious, you're so serious 
    F   G
But [...]
                  F#
If you wanna have fun 

*Riff 4* x10:
See you later, baby see you later 
See you later, baby see you later
See you later, baby see you later
See you later, baby see you later
See you later, baby see you later
See you later, baby see you later
See you later, baby see you later
See you later, baby see you later

Alright!

*SOLO*

Chords used
Am  |x7765x|
Cm  |xx554x|
C#m |xx665x|
D   |xx0232|
Dm  |xx776x| 
F   |x3321x|
F5  |131515xxx|
G   |x5543x|
G#5 |466xxx|
Comments