Franz Ferdinand - Im Your Villain Chords & Tabs

 

Im Your Villain Chords & Tabs

Franz Ferdinand Chords & Tabs

Version: 1 Type: Bass Tab 0 ratings
1 star 2 stars 3 stars 4 stars 5 stars
comments

Im Your Villain Bass Tab

Artist-Franz Ferdinand
Song-Im your villain

Intro
|-----------------------------------------------|x2
|-----------------------------------------------|
|-5-5-55-5-5-5-5-55-5-5------------------------|
|------------------------5-5-55-5-5--5-5-55-5-5-|

Verse
|------------7-----------7---------------------|x2
|----------------------------------------------|
|-5-5-55-5-5--5-5-55-5-5-----------------------|
|-------------------------5-8-5-5-5--5-8-5-5-5-|

Bridge1
|------------7-10------------7-10-----------------------|x2
|-------------------------------------------------------|
|-5-5-55-5-5------5-5-55-5-5----------------------------|
|----------------------------------5-8-5-5-5--5-8-5-5-5-|

Versex2 then
|------------7-----------7---------------------------|
|-------------------------------------7------------7-|
|-5-5-55-5-5-5-5-55-5-5-----------------------------|
|--------------------------5-5-55-5-5--5-5-55-5-5----|

Pre Chorus
|---------------------------------|
|---------------------------------|
|-3-3-3-3-3-3-3-3-5-5-5-5-5-5-5-5-|
|---------------------------------|

Chorus
|----------------------------------|x3
|-55555555555555558888888888888888-|
|----------------------------------|
[ Tab from: http://www.guitartabs.cc/tabs/f/franz_ferdinand/im_your_villain_btab.html ]
|---------------------|
|---------------------|
|-55-55-88-88-------5-|
|-------------88-88---|

Versex2

Bridge1x2

Versex2 then
|------------7-----------7---------------------------|
|-------------------------------------7------------7-|
|-5-5-55-5-5-5-5-55-5-5-----------------------------|
|--------------------------5-5-55-5-5--5-5-55-5-5----|

Pre Chorus2
|-----------------------------------------------------------------|
|-----------------------------------------------------------------|
|-3-3-3-3-3-3-3-3-5-5-5-5-5-5-5-5-6-6-6-6-6-6-6-6-6-6-6-6-6-6-6-6-|
|-----------------------------------------------------------------|

Outro
|----------------------------------|
|----------------------------------|
|----------------------------------|
|-55-555-555-5554322-222-222-22234-|

|-----------------------------------------|
|------------------------4444444444444444-|
|------7-7-------7-765------------------|
|-5555------55555-------------------------|
|-----------------------------6---6-------|x4

|------------------------44444-444-444444-|
|------7-7-------7-765------------------|
|-5555------55555-------------------------|

|--------------------------------------------|
|--------------------------------------------|
|--------------------------------------------|
|-55-55/-99-99/-55-55-55-55/-22-22/-99-999~--|
Comments