Franz Ferdinand - Franz Ferdinand Chords & Tabs

 

Franz Ferdinand Chords & Tabs

Franz Ferdinand Chords & Tabs

Version: 1 Type: Bass Tab 0 ratings
1 star 2 stars 3 stars 4 stars 5 stars
comments

Franz Ferdinand Bass Tab

   
             Franz ferdinand/Frans ferdinand allboom!!
                    Bass tabs BY Paco Valiant :(
-------------------------------------------------------------

Here we are again this is my second album to tab,i tabed the wining days album of
the vines for bass on this page and here are a new tab for keep moving that fingers...
Frans ferdinand,This was completly tabed by me,enyoit(and please forgive my bad english).
And Viiivvaa mmeexiiicoo cabroness..

1.Jacqueline.
2.Tell her tonight.
3.Take me out.
4.The dark of the matinée.
5.Auf achse.
6.Cheating on you.
7.This fire.
8.Darts of pleasure.
9.Michael.
10.Come on home.
11.40´



Jacqueline

intro: (00:43)
G-------------3333-|
D---------1111-----|
A-33333333---------|x4
E------------------|

Verse: (00:56)
G----------------------|
D---------111/8888/3---|Repeat until the change
A-33333333-------------|
E----------------------|

???? at (01:47)
G-----------------------------------------------------|
D-10(x16)----------------10(x16)----------------------|
A--------11(x16)-13(x32)---------11(x16)-13(x32)-10~~-|
E-----------------------------------------------------|

¿?? At (02:17)
G----------------------------------|
D----------------------------------|
A----------------------------------|
E-88888888888888884444444466666666-|

(02:23)Return to the verse.

In (02:54)
G----------------------|
D-33333333/5555/66/88--|
A----------------------|
E----------------------|

In (02:57) again the verse and when the guitars does something like a pre chorus
in(03:10) you dont make anything
And in(03:22) you return to the verse and end.


Tell her tonight.

Intro/verse.
G-----------------|
D-----------------|
A---7-77--12/7-77-|
E-2/--------------|

Chorus: (00:23)
G------------------|
D-7-77—56-7-77—-5/-|
A-----77------77---|
E------------------|

(00:38)return to the verse and in (00:54) again the chorus

And in(01:10) this:
G-----------------------------|
D-----------------------------|
A-----------------------------|
E-3(x16)-6(x16)-3(x16)-6(x16)-|

And in(01:25) return to the verse ,(01:44) chorus

Outro (02:00)
G---------------------------|
D---------------------------|
A---------------------------|
E-3(x16)-6(x16)-9(x16)-11~~-|end


Take me out

Intro: (00:07)
G-------------------------99999999-|
D-------12(x8)--------9999---------|x4
A-10(x8)------10101010-------------|
E----------------------------------|

In (00:34) this
G-------------99999999---------------------------|
D---------9999-----------------------------------|
A-10101010------------10101010-12121212-77777777-|
E------------------------------------------------|

(00:41)
G---------------------------------------------------------|
D-------12(x8)-----10(x8)---------------------------------|
A-10(x8)------8(x8)-------7(x32)while the tempo goes slow-|
E---------------------------------------------------------|

Break (00:55)
G---------------------------------|
D---------------------------------|
A-7-7-7-7-7-7.....till the chorus-|
E---------------------------------|

Chorus (01:04)
G-----------------------------------------------|
D-----------------------------------------------|
A-7-7-7-710-7-7-7-710-12-12-12-121314-14-14-14/-|
E-----------------------------------------------|

At(02:08) repeat the break an then:

Bidge:
G--------------------------|
D-77554422-----------------|
A—---------0h3-0h3-0h5-0h5-|x4
E--------------------------|

And in (02:31)return to the chorus and there are a litle pause (sounds realy cool
and in(03:17) the break,and in(03:21)the bridge again...end wuth the break.....


Dark of the matinée.

Intro
G-------------------------------|
D------------/99-99-999/44-44-2-|
A-44-44-44-44-------------------|
E-------------------------------|

Verse (00:21)
G---------------------------------------------------------------------------|
D------/99-99/44-44-44-442------/99-99/44-44-44-446-77-77-77-776-22-22-22-22|
A-44-44--------------------44-44--------------------------------------------|
E---------------------------------------------------------------------------|
  
  (00:46)
G---------------------------------|
D---------------------------------|
A-2-2-2-2-2-2-2-2-5-5-5-5-5-5-5-5-|
E---------------------------------|

Chorus (00:55)
G-----------------------------------|
D-----------------------------------|
A-2-2-2-0-2-2-2-2-4-5-5-5-4-5-5-5-5-|x2
E------3-----------------5-------5--|

Chorus end (01:11)
G-----------------------|
D-----------/9999/4442--|
A------4(x8)------------|
E-5(x8)-----------------|

And repeat the intro at(01:18),the verse at(01:34)in this one repeat a part that
goes in(01:51),The chorus at(02:17),his finis in(02:33),And then in(02:40) follows
the same notes of the verse but unly playit one time and the chorus and thats all...


Auf achse

Intro:
G---------------|
D---------------|
A---------------|x2
E-5~-8~-10~-13~-|

Verse:  (00:33)
G|--------------------------------------------------------------------|
D|---7---7---7---7/--10--10--10--10/--12--12--12--12/--15--15--15--15-|
A|--------------------------------------------------------------------|
E|-5---5---5---5---8---8---8---8----10--10--10--10---13--13--13--13---|

Chorus (01:34)
G|-------------------------------------|
D|-------------------------------------|
A|---------------5/10-10-10-10-8-8-8-8-|
E|-5-5-5-5-5-5-5-----------------------| x4

In (01:50) this 
G|-------------------------------------------------|
D|-------------------------------------------------|
A|-------------------------------------------------|
E|-5-5-5-5-5-5-5-578-8-8-8-8-8-8-3-3-3-3-3-3-3-3-3-| x2

Then in (02:12)the verse again,(02:42) THE CHORUS,AND THIS IN

(02:57)
G|-----------------------------|---------------------|
D|-----------------------------|---------------------|
A|-----------------------------|---------------------|
E|-5-5-5-5-6-6-6-6-10-10-10-10-|-6-6-6-6-10-10-10-10-| x3

(03:16)
G|-------------------------|
D|-------------------------|
A|-------------------------|
E|-6-6-6-6-1-1-1-1/5-5-5-5-|

HEN THE VERSE AGAIN AND THE OUTRO IS THE SAME AS THE INTRO...


Cheating on you

Intro/ verse
G -----------------------|
D ----------3-55555555---|
A -55555555--------------|
E -----------------------|

Chorus: (00:49)
G ------------------------------------------------------------------------|
D -33-33/-55-55/-33-33/-55-55/-33-33/-55-55-/33-33/-55-55-5-5-5-5-5-5-5-5-| 
A ------------------------------------------------------------------------|
E ------------------------------------------------------------------------|

(01:03)verse again,(01:40)Chorus again,in (01:58) this:

Bridge:  (im not sure about this)
G---------------------------|
D-77-777-777-777-77-777-777-|
A---------------------------|
E---------------------------|Till the verse

End with the verse...


This fire.
[ Tab from: http://www.guitartabs.cc/tabs/f/franz_ferdinand/franz_ferdinand_btab.html ]
Intro: (00:10)
G----------------------------|
D---------------355-55-55-55-|
A-0355-55-55-555-------------|
E----------------------------|

Pre chorus: (00:42)
G---------------------------------|
D---------------------------------|
A-7-7-7-7-7-7-7-7-5-5-5-5-5-5-5-5-|
E---------------------------------|

Chorus (00:49)
G--------------------------------|
D--------------------------------|
A-5-5-5-5-5-5-5-5--------------6-|
E-----------------6-6-6-6-6-6-6--|

(01:17)the verse again,(01:48)pre chorus,(01:55)chorus

At (02:16)
G-----------------------------------------------------------------|
D-----------------------------------------------------------------|
A-5-5-5-5-5-5-5-5/9-9-9-9-9-9-9-9-7-7-7-7-7-7-7-7-----------------|
E-------------------------------------------------7-7-7-7-7-7-7-7-|

G-----------------------------------------------------------------|
D-----------------------------------------------------------------|
A-7-7-7-7-7-7-7-7-----------------7-7-7-7-7-7-7-7-6-6-6-6-6-6-6-6-|
E-----------------7-7-7-7-7-7-7-7---------------------------------|

G---------------------------|
D---------------------------|
A-5-5-5-5-5-5-5-5-222222222-|
E---------------------------|

(02:54) the verse again but begín from up,(03:19)The chorus ,(03:46)end with the verse....


Darts of pleasure

Intro/Verse
G--------------------------|
D-------77-7---------------|
A--99-9------99-9-7-7-7-8--|
E--------------------------|


Progresion in the verse
G----------------------------------------99-12-12-99------------|
D-----66-77-88-99-77-66---------------99-------------99---------|
A--77-------------------99--77-[10-10-------------------10-10]--|
E---------------------------------------------------------------|

the part between the brackets is hard to hear...but what he wrote works

Chorus
G-----------------------------------------------------------------------|
D-----------------------------------------------------------------------|
A--3-3-3-3-3-3-5-3---------------------------------3-2------------------|
E------------------0-0-0-0-0-0-0-0-2-3-5-5-5-5-5-5-----0-0-0-0-0-0-0-0--|

G---------------------------------------------------------------3-3-3*--|
D---------------------------------------------------------------3-3-3---|
A--3-3-3-3-3-3-5-3---------------------------------7-7-7-7-7-7----------|
E------------------0-0-0-0-0-0-0-0/7-7-7-7-7-7-7-7----------------------|

*Not sure if this bit is right...but it sounds ok

Outro
G---------------------------  --------------------------|
D---------------------------  --------------------------|
A---------------------------x4--------------------------|
E-33333333/1212121212121212-  -3-3-3-5-5-5-5-12-12-12-/-|
                                This part goes in the ends 
                                Of superfantastics



Michael

Intro/verse
G---------------------------------|
D----------------2-2-2-2-4-4-4----|
A---------------------------------|
E-2-2-2-2-4-4-4-4-------------020-|

Pre chorus (00:51)
G-------------|
D-2-2-2-2-0h2-|
A-------------|x3
E-------------|

Chorus
G--------------------------|
D--------------------------|
A-444444447777777799999999-|
E--------------------------|x4

(01:20)The verse again with the pre chorus,(02:04)Chorus,bridge at (02:29)have
the same notes as the verse and the verse,and then the chorus end with it....


Come on home

G|--------------------------------------------------------|
D|--------------------------------------------------------| 
A|------------7-8--8--8--8-10-----------------------------|
E|-5--5--5--5----------------8--8--8--8-10-12--12--12--0/-| x4

G|--------------------------------------------------------|
D|--------------------------------------------------------|
A|------------7-8--8--8--8-10-----------------------------|
E|-5--5--5--5----------------8--8--8--8-10-12--12--12--12-|

G|---------------------------------------------------|
D|---------------------------------------------------|
A|---------------------------------------------------|
E|-13r-------8r--------1/5/8/13r-8r--------13r-------|
                         /\______________I'm not 100% about this bit

G|-------------------------------------------|
D|-------------------------------------------|
A|-------------------------------------------|
E|-55555555111111115555555511111111333333333-|

G|------------------------------------------------------|
D|------------------------------------------------------|
A|--------------7-8--8--8--8-10-------------------------|
E|-0/5--5--5--5----------------8--8--8--8-10-12--12--12-| x5

G|---------------------------------------------------|
D|---------------------------------------------------|
A|---------------------------------------------------|
E|-13r-------8r--------1/5/8/13r-8r--------13r-------|

G|-------------------------------------------|
D|-------------------------------------------|
A|-------------------------------------------|
E|-55555555111111115555555511111111333333333-|

G|----------------------------------------------------|
D|----------------------------------------------------|
A|------------7-8-------------------------------------|
E|-5-------------------------8--------8h10-12---------| x2

G|------------------------------------------------------|
D|------------------------------------------------------|
A|--------------7-8--8--8--8-10-------------------------|
E|-0/5--5--5--5----------------8--8--8--8-10-12--12--12-| x2

G|---------------------------------|
D|---------------------------------|
A|---------7-7-7-7\3-3-3-3/7-7-7-7-|
E|-5-5-5-5-------------------------| x2

G|-------------------------------------------------------------------------|
D|-------------------------------------------------------------------------|
A|---------7r-----\3r-----/7r--------------7r--------------7r--------------|
E|-5r------------------------------5r--------------5r--------------5r------|

G|-----------------------------------------------------------------|
D|-----------------------------------------------------------------|
A|-7r----------------------3r--------------3r--------------3r------|
E|---------5r------1r--------------1r--------------1r--------------|



40´  this one has a lot of changes so imade it by steps...

Intro(00:09)
G---------|
D----55---|
A-3----03-|x2
E---------|

(00:18)1
G----------------|
D--------/5-5-5/-|
A-3-3-3-3--------|
E----------------|x8

(00:36)2            (00:46)
G-------------|  |--------|
D----5-5---3-3|  |-5(x16)-|
A-3-3---3-3---|x2|--------|
E-------------|  |--------|

(00:50)3     (01:04
G------|   |--------|
D—-5-5-|   |-3(x16)-|
A-3-5--|   |--------|
E------|x7 |--------|

(01:09)Step1,(01:18)step2,(01:32),sep 3,

In the chorus of(01:51) this:4
    4(01:51)    (01:58)
G----------  |---------| repeat
D----------  |---------|
A-3-31-----  |-1111122-|
E-----3-31-x3|---------|

(02:28)step3,(03:01)sep 4,finish

And that´s all my folks enyoit and lets make a world of rooockkkk 
Any question or problem rinoaism1ne(a)hotmail.com seyou later aligator../.
Comments