Franz Ferdinand - Fallen Chords & Tabs

 

Fallen Chords & Tabs

Franz Ferdinand Chords & Tabs

Version: 2 Type: Bass Tab

Fallen Bass Tab

   
#----------------------------------PLEASE NOTE---------------------------------#
#This file is the author's own work and represents their interpretation of the #
#song. You may only use this file for private study, scholarship, or research. #
#------------------------------------------------------------------------------##

                                    (Bassline)

Franz Ferdinand - The Outsiders
Tabbed by Mike The Coug

  Q=130
 4/4
  Wx3
|--------|
|--------|
|--------|
|--------|
|--------|
|--------|


  Gtr I
  Q E S  E E E S E Q E S  E E S E E Q E S  E E E S E Q E S  E E E S E
|------------------------------------------------------------------------|
|-----3-/8-8---8-------3-/8-8---8-------3-/8-8---8-------3-/8-8---8------|
|-3-3--------8---8-3-3--------8---8-3-3--------8---8-3-3--------8---8----|
|------------------------------------------------------------------------|


  E E E E E E E E H Q H Q  Q E E E E E E E E E
|-------------------------------------------------|
|-----------------------3-/5-5-5-5-5-5-5-5-5-5----|
|---------------------3---------------------------|
|-3-3-3-3-3-3-3-3-5-5-----------------------------|


    Q E E    E  E  Q    Q E E    E  E  Q   Q E E    E  E  Q   Q E E    E  E  Q    4x
||--------------------------------------------------------------------------------||
||o------------------------------------------------------------------------------o||
||o------------------------------------------------------------------------------o||
||--5-5-5--/13-13-13---\5-5-5--/13-13-13--/5-5-5--/13-13-13--\3-3-3--/11-11-11----||


  Q E S  E E E S E  Q E S  E E E S E  Q E S  E E E S E
|---------------------------------------------------------|
|-----3-/8-8---8--------3-/8-8---8--------3-/8-8---8------|
|-3-3--------8---8--3-3--------8---8--3-3--------8---8----|
|---------------------------------------------------------|


  E E E E E E E E H Q H E  Q E E E E E E E E E
|-------------------------------------------------|
|-----------------------3-/5-5-5-5-5-5-5-5-5-5----|
|---------------------3---------------------------|
|-3-3-3-3-3-3-3-3-5-5-----------------------------|


  Q  E E   E  E  Q     Q  E E   E  E  Q
|-------------------|--------------------|
|-------------------|--------------------|
|-------------------|--------------------|
|-5--5-5-/13-13-13--|-\5--5-5-/13-13-13--|


   Q  E E   E  E  Q     Q  E E   E  E  Q
|--------------------|--------------------|
|--------------------|--------------------|
|--------------------|--------------------|
|-/5--5-5-/13-13-13--|-\3--3-3-/11-11-11--|


  Q E S  E E E S E  Q E S E  E E S E
|---------------------------------------|
|-----3-/8-8---8--------3-8-/8---8------|
|-3-3--------8---8--3-3--------8---8----|
|---------------------------------------|

[ Tab from: http://www.guitartabs.cc/tabs/f/franz_ferdinand/fallen_btab_ver_2.html ]
  E E E E E E E E   H    Q  H      E  Q  E E E E E   E E E E
|-----------------|--------------|-----------------|-----------|
|-----------------|--------------|-3-/5--5-5-5-5-5-|-5-5-5-5---|
|-----------------|---------3----|-----------------|-----------|
|-3-3-3-3-3-3-3-3-|-5----5-------|-----------------|-----------|


  E E E E E E E E E E E E E E E E E E E E E E E E E E E E E E E E E E E
|-----------------------------------------------------------------------|
|-----------------------------------------------------------------------|
|-3-3-3-3-3-5-5-5-5-5-7-7-7-7-7-5-5-5-5-5-3-3-3-3-3-5-5-5-5-5-7-7-7-7-7-|
|-----------------------------------------------------------------------|


  E E E E E E E E E  Q
|-------------------------|
|-------------------------|
|-5-5-5-5-5-0-0-0-0--0----|
|-------------------------|


    Q  E E   E  E  Q     Q  E E   E  E  Q
||--------------------|--------------------|
||o-------------------|--------------------|
||o-------------------|--------------------|
||--5--5-5-/13-13-13--|-\5--5-5-/13-13-13--|


   Q  E E   E  E  Q     Q  E E   E  E  Q
|--------------------|--------------------||
|--------------------|-------------------o||
|--------------------|-------------------o||
|-/5--5-5-/13-13-13--|-\3--3-3-/11-11-11--||


    Q E S  E E E S E    Q E S  E E E S E     6x
||--------------------|----------------------||
||o-----3-/8-8---8----|-----3-/8-8---8------o||
||o-3-3--------8---8--|-3-3--------8---8----o||
||--------------------|----------------------||


  E E E E E E E E   H    Q  H      E  Q  E E E E E   E E E E
|-----------------|--------------|-----------------|-----------|
|-----------------|--------------|-3-/5--5-5-5-5-5-|-5-5-5-----|
|-----------------|---------3----|-----------------|-----------|
|-3-3-3-3-3-3-3-3-|-5----5-------|-----------------|-------3---|


Duration Legend
---------------
W - whole; H - half; Q - quarter; E - 8th; S - 16th; T - 32nd; X - 64th; a - acciaccatura
+ - note tied to previous; . - note dotted; .. - note double dotted
Uncapitalized letters represent notes that are staccato (1/2 duration)
Irregular groupings are notated above the duration line
Duration letters will always appear directly above the note/fret number it represents the
duration for.  Duration letters with no fret number below them represent rests.  Multi-
bar rests are notated in the form Wxn, where n is the number of bars to rest for.  Low
melody durations appear below the staff

Tablature Legend
----------------
 h   - hammer-on
 p   - pull-off
 b   - bend
 pb  - pre-bend
 r   - bend release (if no number after the r, then release immediately)
 /\  - slide into or out of (from/to "nowhere")
 s   - legato slide
 S   - shift slide
  - natural harmonic
[n]  - artificial harmonic
n(n) - tapped harmonic
 ~   - vibrato
 tr  - trill
 T   - tap
 TP  - trem. picking
 PM  - palm muting
\n/  - tremolo bar dip; n = amount to dip
 \n  - tremolo bar down
 n/  - tremolo bar up
/n\  - tremolo bar inverted dip
 =   - hold bend; also acts as connecting device for hammers/pulls
 <>  - volume swell (louder/softer)
 x   - on rhythm slash represents muted slash
 o   - on rhythm slash represents single note slash

Misc Legend
-----------
 |  - bar
||  - double bar
||o - repeat start
o|| - repeat end
*|  - double bar (ending)
 :  - bar (freetime)
 $  - Segno
 &  - Coda
Tempo markers -  = BPM(8/16=s8/s16), where s8 = swing 8ths, s16 = swing 16ths


***************************************************************************************
* Generated using Power Tab Editor by Brad Larsen - http://powertab.guitarnetwork.org *
***************************************************************************************