Franz Ferdinand - Do You Want To Chords & Tabs

 

Do You Want To Chords & Tabs

Franz Ferdinand Chords & Tabs

Version: 2 Type: Tab 0 ratings
1 star 2 stars 3 stars 4 stars 5 stars
comments

Do You Want To Tab


Guitar 1:
Intro:

e|---------------------------------------------------------------|x1
B|---------------------------------------------------------------|
G|--3-(slide)-7-(x8)-10-(x8)-------------------------------------|
D|---------------------------------------------------------------|
A|---------------------------------------------------------------|
E|---------------------------------------------------------------|


e|---------------------------------------------------------------|x4
B|---------------------------------------------------------------|
G|----7(b)-7(b)-7(h-on)-5-------5--------------------------------|
D|----------------------------7---7------------------------------|
A|---------------------------------------------------------------|
E|---------------------------------------------------------------|

e|---------------------------------------------------------------|x1
B|------------------------------10------10--12(b)-12(b)-10---10--|
G|--9-9-8-9-9-8-9-9-8-9-8-9-11------11---------------------11----|
D|---------------------------------------------------------------|
A|---------------------------------------------------------------|
E|---------------------------------------------------------------|

Verse:
e|---------------------------------------------------------------|x2
B|---------------------------------------------------------------|
G|--------------------------------5-------5---3------------------|
D|-------5-------5---3-(x4)---------------------------3-------3--|
A|----------------------------3-------3--------------------------|
E|---3-------3------------------------------------1-------1------|

e|---------------------------------------------------------------|x1
B|---------------------------------------------------------------|
G|--------------------------------5-------5---3------------------|
D|-------5-------5---3-(x6)---------------------------3-------3--|
A|----------------------------3-------3--------------------------|
E|---3-------3------------------------------------1-------1------|

e|----------------------------|x2
B|----------------------------|
G|----------------------------|
D|-------5-------5---3--------|
A|----------------------------|
E|---3-------3----------------|

Chorus:
e|---------------------------------------|x1
B|---------------------------------------|
G|---------------------------------------|
D|-----------7-----------3---------------|
A|-----------7-----------3---------------|
E|---5-7-8---5---1-5-8---1---3-5-8-------|

Verse:
e|----------------------------|x2
B|----------------------------|
G|----------------------------|
D|-------5-------5---3--------|
A|----------------------------|
E|---3-------3----------------|

Chorus:
e|---------------------------------------|x1
B|---------------------------------------|
G|---------------------------------------|
D|-----------7-----------3---------------|
A|-----------7-----------3---------------|
E|---5-7-8---5---1-5-8---1---3-5-8-------|

Verse:
e|---------------------------------------------------------------|x2
B|---------------------------------------------------------------|
G|--------------------------------5-------5---3------------------|
D|-------5-------5---3-(x4)---------------------------3-------3--|
A|----------------------------3-------3--------------------------|
E|---3-------3------------------------------------1-------1------|

e|----------------------------|x2
B|----------------------------|
G|----------------------------|
D|-------5-------5---3--------|
A|----------------------------|
E|---3-------3----------------|

Chorus:
e|---------------------------------------|x1
B|---------------------------------------|
G|---------------------------------------|
D|-----------7-----------3---------------|
A|-----------7-----------3---------------|
E|---5-7-8---5---1-5-8---1---3-5-8-------|

Verse:
e|----------------------------|x4
B|----------------------------|
G|----------------------------|
D|-------5-------5---3--------|
A|----------------------------|
E|---3-------3----------------|
[ Tab from: http://www.guitartabs.cc/tabs/f/franz_ferdinand/do_you_want_to_tab_ver_2.html ]
Bridge:
e|---------------------------------------------------------------|x4
B|---------------------------------------------------------------|
G|---------------------------------------------------------------|
D|-------5---------5---------------------------------------------|
A|---------------------------------------------------------------|
E|---3-3---3-3-3-3---3-0-1-2-------------------------------------|

e|-------------------------------------------------------------------------|
B|-------------------------------------------------------------------------|
G|-------------------------------------------------------------------------|
D|-------------------------------------------------------------------------|
A|-------------------------------------------------------------------------|
E|---6(x16)-5(x16)-3-5(x16)-3-5-8-8-8-7-8-8-8-7-8-8-8-7-8-8-8-7-10(x16)----|

Verse:
e|---------------------------------------------------------------|x2
B|---------------------------------------------------------------|
G|--------------------------------5-------5---3------------------|
D|-------5-------5---3-(x4)---------------------------3-------3--|
A|----------------------------3-------3--------------------------|
E|---3-------3------------------------------------1-------1------|

Ending:
e|---3-3-3-3---3-------------------------------------------------|x2
B|---3-3-3-3---5-------------------------------------------------|
G|---4-4-4-4---5-------------------------------------------------|
D|---5-5-5-5---5-------------------------------------------------|
A|---5-5-5-5---3-------------------------------------------------|
E|---3-3-3-3-----------------------------------------------------|

e|----------------------------------------------------------------------|x3
B|---------1---------------2---------------3---------------4------------|
G|-------0---0-----------2---2-----------3---3-----------4---4----------|
D|-----2-------2-------3-------3-------4-------4-------5-------5--------|
A|---3-----------3---4-----------4---5-----------5---6-----------6------|
E|----------------------------------------------------------------------|


e|---3-----------------------------------------------------------|x1
B|---5-----------------------------------------------------------|
G|---5-----------------------------------------------------------|
D|---5-----------------------------------------------------------|
A|---3-----------------------------------------------------------|
E|---------------------------------------------------------------|

Guitar 2:

Intro: 

Verse:

e|---------------------------------------------------------------|
B|---------------------------------------------------------------|
G|-----------5---------------------------------------------------|
D|---5-------5------3--------------------------------------------|
A|---5-------3------3--------------------------------------------|
E|---3--xxxx---xxxx-1-xxx----------------------------------------|

Chorus:
e|---------------------------------------|
B|---------------------------------------|
G|---------------------------------------|
D|-----------7-----------3---------------|
A|-----------7-----------3---------------|
E|-----------5-----------1---------------|

Bridge:

e|---------------------------------------------------------------|
B|---------------------------------------------------------------|
G|---------------------------------------------------------------|
D|-------5---------5---------------------------------------------|
A|---------------------------------------------------------------|
E|---3-3---3-3-3-3---3-0-1-2-------------------------------------|

Ending:
e|---3-3-3-3---3-------------------------------------------------|
B|---3-3-3-3---5-------------------------------------------------|
G|---4-4-4-4---5-------------------------------------------------|
D|---5-5-5-5---5-------------------------------------------------|
A|---5-5-5-5---3-------------------------------------------------|
E|---3-3-3-3-----------------------------------------------------|


e|---------------------------------------------------------------|
B|---------------------------------------------------------------|
G|---5---6---7---8-----------------------------------------------|
D|---5---6---7---8-----------------------------------------------|
A|---3---4---5---6-----------------------------------------------|
E|-------------------------------------------------------------

e|---3-----------------------------------------------------------|
B|---5-----------------------------------------------------------|
G|---5-----------------------------------------------------------|
D|---5-----------------------------------------------------------|
A|---3-----------------------------------------------------------|
E|---------------------------------------------------------------|

 
 
 
 

Comments