Franz Ferdinand - Do You Want To Chords & Tabs

 

Do You Want To Chords & Tabs

Franz Ferdinand Chords & Tabs

Version: 1 Type: Tab 0 ratings
1 star 2 stars 3 stars 4 stars 5 stars
comments

Do You Want To Tab

This is only a rough guess, but it should give you all some idea how to go on

Franz Ferdinand

Do You Want To


Intro


e--10-10-10-10-10-10-10-10-/-13-13-13-13-13-13-13-|
B-------------------------------------------------|
G-/7--7--7--7--7--7--7--7--/-10-10-10-10-10-10-10-|
D-------------------------------------------------|
A-------------------------------------------------|
E-------------------------------------------------|

[ Tab from: http://www.guitartabs.cc/tabs/f/franz_ferdinand/do_you_want_to_tab.html ]
e--10-10-8-10-----10-10-8-10-8----|
B--------10---10--------10-----10-|    Play
G---------------------------------|
D---------------------------------|   Twice
A---------------------------------|
E---------------------------------|


e----------------------------------------------------------------|
B----5--5-4-5--5-4-5--5-4-5--5-4-5-4-/-7-7-7-7-7-7-7-7-/-13-/-15-|
G----------------------------------------------------------------|
D----------------------------------------------------------------|
A----------------------------------------------------------------|
E----------------------------------------------------------------|
Comments