Franz Ferdinand - Do You Want To Chords & Tabs

 

Do You Want To Chords & Tabs

Franz Ferdinand Chords & Tabs

Version: 3 Type: Bass Tab

Do You Want To Bass Tab

   
-------------------------------------------------------------------------------
			     Do you want to - Franz Ferdinand
-------------------------------------------------------------------------------

Tabbed By : Michael Jolley
e-mail: jolley_small@hotmail.com

Tuning: E A D G (standard)

intro x1

G|-------------------------| x2
D|-------------------------|
A|-/13-13-13-13-13-13-13-13|
E|-------------------------|

G|---------------------| x4
D|-------------10------|
A|-12-12-12h10---------|
E|----------------12---|

G|------------------------------------------------------|
D|------------------------------------------------------|
A|------------------------------------------------------|
E|-88-8-7-8-8-7-8-8-7-8-7-8-9-10-10-10-10-10-10-10-10-\-|

Chorus/verse 1

G|--------------------------|------------------------|------5---------10------| 
D|-----5----------5---------|-----5----------5-------|------------------------|
A|--------------------------|--------------------3-6-|-\3-3---3-3/8-8----8-8\-|
E|-3-3---3--3-3-3---3-0-5-6-|-3-3---3--3-3-3---3-----|------------------------|
x2

G|--------------------------| x1
D|-----5----------5---------|
A|--------------------------|
E|-3-3---3--3-3-3---3-0-5-6-|


G|--------------------------|------------------------|------5---------10------| 
D|-----5----------5---------|-----5----------5-------|------------------------|
A|--------------------------|--------------------3-6-|-\3-3---3-3/8-8----8-8\-|
E|-3-3---3--3-3-3---3-0-5-6-|-3-3---3--3-3-3---3-----|------------------------|


G|--------------------------| 
D|-----5----------5---------|
A|--------------------------|
E|-3-3---3--3-3-3---3---4---|


Bridge

G|---------------------------------------------------------------------|
D|---7--7---7--7---7--7---7------15--15----15--15----15--15----15------|
A|---------------------------------------------------------------------|
E|-5------5------5------5---5/13--------13--------13--------13---13/---|


Link


G|--------------------------| 
D|-----5----------5---------|
A|--------------------------|
E|-3-3---3--3-3-3---3---4---|


Bridge x1

[ Tab from: http://www.guitartabs.cc/tabs/f/franz_ferdinand/do_you_want_to_btab_ver_3.html ]
Chorus/verse 2

G|--------------------------|------------------------|------5---------10------| 
D|-----5----------5---------|-----5----------5-------|------------------------|
A|--------------------------|--------------------3-6-|-\3-3---3-3/8-8----8-8\-|
E|-3-3---3--3-3-3---3-0-5-6-|-3-3---3--3-3-3---3-----|------------------------|
x2

G|--------------------------| x1
D|-----5----------5---------|
A|--------------------------|
E|-3-3---3--3-3-3---3--4----|


Bridge x1


Chorus 3 

G|--------------------------| x2
D|-----5----------5---------|
A|--------------------------|
E|-3-3---3--3-3-3---3-0-5-6-|


Bridge2

G|----------------------------| x4
D|------5---------5-----------|
A|----------------------------|
E|--3-3---3-3-3-3---3-0-1-2---|

G|----------------------------| 
D|------5---------5-----------|
A|----------------------------|
E|--3-3---3-3-3-3---3-4-------|

G|---------------------|
D|---------------------|
A|----------------3----|
E|--5-5-5-5-5-5-5---3--|

G|-----------------------------------------------------------------------|
D|-----------------------------------------------------------------------|
A|-----------------------------------------------------------------------|
E|--5-5-5-5-5-5-8-7-8-8-7-8-8-7-8-8-7-8-7-8-7-8-9-10-10-10-10-10-10-10-10|


Chorus/verse 4

G|--------------------------|------------------------|-----5--------10------| 
D|-----5----------5---------|-----5----------5-------|----------------------|
A|--------------------------|--------------------3-6-|\3-3---3-3/8-8---8-8\-|
E|-3-3---3--3-3-3---3-0-5-6-|-3-3---3--3-3-3---3-----|----------------------|
x2

End

G|------------------| x2
D|------------------|
A|-------------3----|
E|-3--3--3--3-------| let the three ring longer 2nd time

G|----------------------|x3
D|----------------------|
A|----------------------|
E|--3-------------------|  let the three ring each time, including the last
time which is the end of the song.

Enjoy :) Im quite sure its correct


| /  slide up
| \  slide down
| h  hammer-on
| p  pull-off
| ~  vibrato
| +  harmonic
| x  Mute note
===================================================================