Franz Ferdinand - Dark Of The Matinee Chords & Tabs

 

Dark Of The Matinee Chords & Tabs

Franz Ferdinand Chords & Tabs

Version: 5 Type: Tab 0 ratings
1 star 2 stars 3 stars 4 stars 5 stars
comments

Dark Of The Matinee Tab

   
                              Franz Ferdinand
                           the Dark of the Matinee
----------------------------------------------------------------------------
Standard Tuning - E B G D A E     
_________
|       E |----------------------------|
|       B |----------------------------|
|       G |----------------------------|
|SOFTLY D |-----2------2------2------2-|
|SOFTLY A |-4-4----4-4----4-4----4-4---|
|_______E |----------------------------|

                                
E |-------------------------------------------------------------------|
B |-------------------------------------------------------------------|
G |-------------------------------------------------------------------|
D |-----2------2------2------2----------------------------------------|
A |-4-4----4-4----4-4----4-4----2-2-4-5-2-4-5-7-9-9-12-9-12-11-9------|
E |-------------------------------------------------------------------|

E |-------------------------------------------------------------------|
B |-------------------------------------------------------------------|
G |-------------------------------------------------------------------|
D |-----2------2------2------2----------------------------------------|
A |-4-4----4-4----4-4----4-4----2-2-4-5-2-4-5-7-9-9-11-9-11-9-4-------|
E |-------------------------------------------------------------------|
                                  
E |-------------------------------------------------------------------|
B |-------------------------------------------------------------------|
G |-------------------------------------------------------------------|
D |-------------------------------------------------------------------|
A |-11-9-7-6-4-----------------11-9-7-6-9----9-11-12-14-16------------|
E |---------------2-4-5-7-9-------------------------------------------|

E |-------------------------------------------------------------------|
B |-------------------------------------------------------------------|
G |-------------------------------------------------------------------|
D |-------------------------------------------------------------------|
A |4-4-4-4-4-4-4-4-7-7-7-7-7-7-7-7-2-2-2-2-2-2-2-2-5-5-5-5-5-5-5-5----|
E |-------------------------------------------------------------------|

E |--5--7--5------5--7--5------5--7--5------5--7--5-------------------|
B |-7--7--7--7---7--7--7--7---7--7--7--7---7--7--7--7-----------------|
G |-------------------------------------------------------------------| (x2)
D |-------------------------------------------------------------------|
A |-------------------------------------------------------------------|
E |-------------------------------------------------------------------|

E |--------------------------------------------------------------------|
B |--------------------------------------------------------------------|
G |--------------------------------------------------------------------|
D |--------------------------------------------------------------------|
A |-0-7-4-0-7-4-0-7--0-7-4-0-7-4-0-7--5-2--5-2--5----------------------|
E |---------------------------------------3----3-----------------------|

E |--------------------------------------------------------------------|
B |--------------------------------------------------------------------|
G |--------------------------------------------------------------------|
D |-----2------2------2-----2------------------------------------------|
A |-4-4----4-4----4-4----4-4----2-2-4-5-2-4-5-7-9-9-12-9-12-11-9-------|
E |--------------------------------------------------------------------|

E |--------------------------------------------------------------------|
B |--------------------------------------------------------------------|
G |--------------------------------------------------------------------|
D |-----2------2------2------2-----------------------------------------|
A |-4-4----4-4----4-4----4-4----2-2-4-5-2-4-5-7-9-9-12-9-12-11-9-4-----|
E |--------------------------------------------------------------------|
[ Tab from: http://www.guitartabs.cc/tabs/f/franz_ferdinand/dark_of_the_matinee_tab_ver_5.html ]
E |-------------------------------------------------------------------|
B |-------------------------------------------------------------------|
G |-------------------------------------------------------------------|
D |-------------------------------------------------------------------|
A |-11-9-7-6-4-----------------11-9-7-6-9----9-11-12-14-16------------|
E |---------------2-4-5-7-9-------------------------------------------|

E |-------------------------------------------------------------------|
B |-------------------------------------------------------------------|
G |-------------------------------------------------------------------|
D |-------------------------------------------------------------------|
A |4-4-4-4-4-4-4-4-7-7-7-7-7-7-7-7-2-2-2-2-2-2-2-2-5-5-5-5-5-5-5-5----|
E |-------------------------------------------------------------------|

E |--5--7--5------5--7--5------5--7--5------5--7--5-------------------|
B |-7--7--7--7---7--7--7--7---7--7--7--7---7--7--7--7-----------------|
G |-------------------------------------------------------------------| (x2)
D |-------------------------------------------------------------------|
A |-------------------------------------------------------------------|
E |-------------------------------------------------------------------|

E |-------------------------------------------------------------------|
B |-------------------------------------------------------------------|
G |-------------------------------------------------------------------|
D |-------------------------------------------------------------------|
A |-0-7-4-0-7-4-0-7--0-7-4-0-7-4-0-7--5-2--5-2--5---------------------|
E |---------------------------------------3----3----------------------|

E |-------------------------------------------------------------------|
B |-------------------------------------------------------------------|
G |-------------------------------------------------------------------|
D |-------------------------------------------------------------------|
A |-11-9-7-6-4-----------------11-9-7-6-9----9-11-12-14-16------------|
E |---------------2-4-5-7-9-------------------------------------------|

E |--------------------------------------------------------------------|
B |--------------------------------------------------------------------|
G |--------------------------------------------------------------------|
D |---------------9----9-----------------------------------------------|
A |-7----7----4--------------------------------------------------------|
E |--------------------------------------------------------------------|

E |---------------------------------------------------------------------|
B |---------------------------------------------------------------------|
G |---------------------------------------------------------------------|
D |---------------------------------------------------------------------|
A |2-2-2-2-2-2-2-2-5-5-5-5-5-5-5-5--------------------------------------|
E |---------------------------------------------------------------------|

E |--5--7--5------5--7--5------5--7--5------5--7--5-------------------|
B |-7--7--7--7---7--7--7--7---7--7--7--7---7--7--7--7-----------------|
G |-------------------------------------------------------------------| (x4
D |-------------------------------------------------------------------|
A |-------------------------------------------------------------------|
E |-------------------------------------------------------------------|

E |-------------------------------------------------------------------|
B |-------------------------------------------------------------------|
G |-------------------------------------------------------------------|
D |-------------------------------------------------------------------|
A |-0-7-4-0-7-4-0-7--0-7-4-0-7-4-0-7--5-2--5-2--5---------------------|
E |---------------------------------------3----3----------------------|

This tab was made my Tyler Burns also known as guitarfrk06.

Please note that this tab is not exactly how the song is written.

Thank you for looking at this tab and thank you to ultimate-guitar for making this tab possible!!!
Comments