Franz Ferdinand - Cheating On You Chords & Tabs

 

Cheating On You Chords & Tabs

Franz Ferdinand Chords & Tabs

Version: 1 Type: Tab 0 ratings
1 star 2 stars 3 stars 4 stars 5 stars
comments

Cheating On You Tab

   
Band - Franz Ferdinand
Song - Cheating On You

Intro:
E-----------------------------------------------------------------|
B-----------------------------------------------------------------|
G-----------------------------------------------------------------|
D-----------------------------------------------------------------|
A-1-1-1-1-1-1-1-4-5-5-5-5-5-4-3-2-1-1-1-1-1-1-1-4-5-5-5-5-5-5-5-5-|
E-----------------------------------------------------------------|

Verse:
E-------------------------------|
B-------------------------------|
G-------------------------------|
D-3-0-3-0-3-0-3-0-7-5-0-5-5-5-5-|
A-------------------------------|
E-------------------------------|

E -----------------|
B------------------|
G------------------|
D-3𦠭𧈃𦠭5--|
A------------------|
E------------------|

Chorus:
E-----------------|
B-6-6-8-8-6-6-8-8-|
G-----------------|
D-----------------|
A-----------------|
E-----------------|
[ Tab from: http://www.guitartabs.cc/tabs/f/franz_ferdinand/cheating_on_you_tab.html ]
Verse:
E-------------------------------|
B-------------------------------|
G-------------------------------|
D-3-0-3-0-3-0-3-0-7-5-0-5-5-5-5-|
A-------------------------------|
E-------------------------------|

E -----------------|
B------------------|
G------------------|
D-3𦠭𧈃𦠭5--|
A------------------|
E------------------|

Chorus:
E-----------------|
B-6-6-8-8-6-6-8-8-|
G-----------------|
D-----------------|
A-----------------|
E-----------------|

Bridge:
E--------------------------------|
B--------------------------------|
G--------------------------------|
D-7-4-7-4-7-4-7-4-11-9-7-9-9-9-9-|
A--------------------------------|
E--------------------------------|

Outro:
E-------------------------------|
B-------------------------------|
G-------------------------------|
D-3-0-3-0-3-0-3-0-7-5-0-5-5-5-5-|
A-------------------------------|
E-------------------------------|

E -----------------|
B------------------|
G------------------|
D-3𦠭𧈃𦠭5--|
A------------------|
E------------------|

End.
Comments