Franz Ferdinand - All For You Sophia Chords & Tabs

 

All For You Sophia Chords & Tabs

Franz Ferdinand Chords & Tabs

Version: 1 Type: Tab 0 ratings
1 star 2 stars 3 stars 4 stars 5 stars
comments

All For You Sophia Tab

Intro
=====
Gtr1
e|------------------------------------------------------------------------|
b|------------------------------------------------------------------------|
g|------------------------------------------------------------------5-----|
d|-7--7--7-7-7-7--5--5--5-5-5-5----------------------------------5-----7--|
a|--------------------------------8--8--8-8-8-8--7--7---5--5--8-----------|
E|----------------------------------------------------5-------------------|

e|-------------------|
b|-------------------|
g|------------5~~----|
d|-5-5-7-5-7---------|
a|-------------------|
E|-------------------|

Gtr2
e|----------------------------------------------------------------|
b|-10--10--13-10-12-13--10------(10)--(10)--12-12-10-10-8-10------|
g|----------------------------------------------------------------|
d|----------------------------------------------------------------|
a|----------------------------------------------------------------|
E|----------------------------------------------------------------|
[ Tab from: http://www.guitartabs.cc/tabs/f/franz_ferdinand/all_for_you_sophia_tab.html ]
Chorus
Gtr1
e|-------------------------------------------------|
b|-------------------------------------------------|
g|--------7-----------9----------10----------12----|
d|-----7-----7-----9-----9----10----10----12----12-|
a|--5-----------7-----------8----------10----------|
E|-------------------------------------------------|

Gtr2
e|-----------------------|
b|-----------------------|
g|--7----9----10---12----|
d|--7----9----10---12----|
a|--5----7----8----10----|
E|-----------------------|

Outro

Guitar one:
Let chords ring
e|----------------|
b|----------------|
g|--------10------|
d|--7-----10------|
a|--7-----8-------|
E|--5-------------|

while guitar two:
e|-------------------|
b|-------------------|
g|--7---5---5---7----|
d|-------------------|
a|-------------------|
E|-------------------|

End (2:32)
e|--------------------|
b|--------------------|
g|------7---10---12---|  (x 2)
d|--7---7---10---12---|
a|--7---5---8----10---|
E|--5-----------------|

e|--------|
b|--------|
g|--------|
d|---7----|
a|---7----|
E|---5----|
Comments