Frankie J - Obsession Chords & Tabs

 

Obsession Chords & Tabs

Frankie J Chords & Tabs

Version: 2 Type: Tab 0 ratings
1 star 2 stars 3 stars 4 stars 5 stars
comments

Obsession Tab

   
-------------------------------------------------------------------------------
			    Obsession - Frankie J
-------------------------------------------------------------------------------
Tabbed by:Erik Moreno
Email:kyo1434@yahoo.com

Tuning:Standard Tuning (EADGBe)
Capo 1st Fret

I took a few of the other pieces and kinda threw them together and added a few things. 
its a pretty easy song. Enjoy.


Intro/Verse:
[ Tab from: http://www.guitartabs.cc/tabs/f/frankie_j/obsession_tab_ver_2.html ]
e ------3-----2-----3-----2----------------3-----2-----3-----2--------|
b ------3-----3-----3-----3--2h3p2---------3-----3-----3-----3--------|
g -----0-----0-----0-----0--------2h4p2---0-----0-----0-----0---2h4p2-|
d ----0-----0-----0-----0----------------0-----0-----0-----0----------|
a --------2-----------2----------------------2-----------2------------|
E --3-----------3----------------------3-----------3------------------|

Chorus:

D             A
Amor, no es amor (if this aint love)
G                         D
What am I feeling (what am i doing wrong)
D             A
Amor, no es amor (if this aint love)
G                                      A
Its just an illusion that i have in my heart

       D     A     G
e |----2-----0-----3---------|
b |----3-----2-----3---------|
g |----2-----2-----0---------|
d |----0-----2-----0---------|
a |----x-----0-----2---------|
E |----x-----x-----3---------|


If there are any mistakes e-mail me. I'm working on a version without a capo.
Comments