Frankie J - How To Deal Acoustic Chords & Tabs

 

How To Deal Acoustic Chords & Tabs

Frankie J Chords & Tabs

Version: 2 Type: Tab 0 ratings
1 star 2 stars 3 stars 4 stars 5 stars
comments

How To Deal Acoustic Tab

   
This is my own acoustic version of the song. I had a few ideas from some of the
tablatures that I've read. It's a little more complicated from the rest. I made
some few adjustments and I hope you can follow it. 
flipryde33@yahoo.com
-Ryan-


[ Tab from: http://www.guitartabs.cc/tabs/f/frankie_j/how_to_deal_acoustic_tab_ver_2.html ]
	  D		   G		   G		     A
e |----2----0--5----|-----------0~0h2|----------------|----------0---------|
b |--------3----~---|----3---3-------|-0----0---0---3-|-2---3--------------|
g |-------2---------|-------0-0------|-----0-0---0----|----2---2-----------|
d |----0------------|------0---------|----0---0---0---|---2---2------------|
a |-----------------|----------------|----------------|-0------------------|
E |-----------------|----3-----------|-3--------------|--------------------|



e |----2----0--5----|---9h10-9----------------|--------------------|
b |--------3----~---|----------10----6s7--6s7-|---3----3---3-------|
g |-------2---------|-------------------------|-------0---0--------|
d |----0------------|-------------------------|------0---0---------|
a |-----------------|-------------------------|--------------------|
E |-----------------|-------------------------|---3----------------|
Comments