Frankenstein Drag Queens From The Planet 13 - Scary Song Chords & Tabs

 

Scary Song Chords & Tabs

Frankenstein Drag Queens From The Planet 13 Chords & Tabs

Version: 1 Type: Tab 0 ratings
1 star 2 stars 3 stars 4 stars 5 stars
comments

Scary Song Tab

      
 scary song - frankenstein drag queens from planet 13

  [intro] and [verse]
  1:----------------------------------------
  2:----------------------------------------
  3:----------------------------------------
  4:----------------------------------------
  5:-2-2-3-3-4-4-5-4-(x3,then this)--2-2----
  6:-0-0-1-1-2-2-3-2-('' '' '' '' )--0-0----
[ Tab from: http://www.guitartabs.cc/tabs/f/frankenstein_drag_queens_from_the_planet_13/scary_song_tab.html ]
  [chours]
  1:----------------------------------------------------
  2:----------------------------------------------------
  3:----------------------------------------------------
  4:----------------------------------------------------
  5:-2-2-2-2-5-5-54/54-2--2-2-2-2-2-2-5-54/54-2-----
  6:-0-0-0-0-3-3-32/32-0--0-0-0-0-0-0-3-32/32-0-----

  1:---------------------------------------------------- 
  2:----------------------------------------------------  
  3:----------------------------------------------------
  4:----------------------------------------------------
  5:-2-2-2-2-2-2-2-5-5-54/54-2-2-2-2-2-5-5-54/54-2--
  6:-0-0-0-0-0-0-0-3-3-32/32-0-0-0-0-0-3-3-32/32-0--

   just listen to the cd to get the timing right... evrything 
   else i think is ok....
  
   
Comments