Frankenstein Drag Queens From Planet 13 - Too Dead To Die Chords & Tabs

 

Too Dead To Die Chords & Tabs

Frankenstein Drag Queens From Planet 13 Chords & Tabs

Version: 1 Type: Bass Tab 0 ratings
1 star 2 stars 3 stars 4 stars 5 stars
comments

Too Dead To Die Bass Tab

Tabbed By : ding
e-mail: devilishdude22@hotmail.com

Tuning:

verse

G|-------------------------|   ( played 4 times )
D|-------------------------|
A|-------------------------|
E|----3-4-5-5-5-5-5-5-5-5--|

and then...

G|-------------------------|   ( played 2 times )
D|-------------------------|
A|----3-4-5-5-5-5-5-5-5-5--|
E|-------------------------|

[ Tab from: http://www.guitartabs.cc/tabs/f/frankenstein_drag_queens_from_planet_13/too_dead_to_die_btab.html ]
G|-------------------------|   ( played 2 times )
D|-------------------------|
A|-------------------------|
E|----3-4-5-5-5-5-5-5-5-5--|


The chourus

G|----------------------------|
D|----------------------------|
A|---7-7-7-7-5-5-5-5----------|
E|-------------------5-5-5-5--|

Order

Verse
Chourus
Verse
Chourus
Solo ( play verse during this )
Verse
Chourus x 3

Another great and easy song by wednesday 13/ Fdq. Hope you get this song guys its good. 
out my guitar version soon!!!
Comments