Frankenstein Drag Queens From Planet 13 - Scary Song Chords & Tabs

 

Scary Song Chords & Tabs

Frankenstein Drag Queens From Planet 13 Chords & Tabs

Version: 1 Type: Tab 0 ratings
1 star 2 stars 3 stars 4 stars 5 stars
comments

Scary Song Tab

This is my first tab
The frankenstein drag queens are wednesday 13's first band. Then he left them
to join murderdolls. He then took the songs you see on the murderdolls debut
album "beyond the valley of the murderdolls" from the frankenstein drag quens
from the planet 13.
www.frankensteindragqueens.com
 
i need more drag queens tabs
[ Tab from: http://www.guitartabs.cc/tabs/f/frankenstein_drag_queens_from_planet_13/scary_song_tab.html ]
[------------------------
[------------------------
[------------------------
[------------------------
[-2222-3333-4444-5544----
[-0000-1111-2222-3322----
thats the verse and main riff

pre chorus

[------------------------
[------------------------
[------------------------
[------------------------
[-22--xxxx-22------------
[-00--xxxx-00------------
AAAAHHHHHH!!!(wedbesday13 screams)

chorus

[-------------------------
[-------------------------
[-----------22------------
[-2222------22-------555-4
[-2222------00-------555-4
[-0000---------------333-2

then play the verse again 
i dont no the solo becaude wednesday is a fuckin ace guitarist
Comments