Frank Zappa - Sexual Harrassment In The Workplace Chords & Tabs

 

Sexual Harrassment In The Workplace Chords & Tabs

Frank Zappa Chords & Tabs

Version: 1 Type: Tab 0 ratings
1 star 2 stars 3 stars 4 stars 5 stars
comments

Sexual Harrassment In The Workplace Tab

   
#----------------------------------PLEASE NOTE---------------------------------#
#This file is the author's own work and represents their interpretation of the #
#song. You may only use this file for private study, scholarship, or research. #
#------------------------------------------------------------------------------#

Author/Artist: Frank Zappa
Title: Sexual Harrassment in the Workplace
Album: Guitar
Transcribed by: Terry Thorne
Email: tthorne@nf.sympatico.ca

I tabbed the rhythym and bass in standard tuning, but
since I'm so lazy, I tabbed the lead as my #1 is tuned
(down 1/2 step).  So, if yer gonna play in standard,
adjust it. (I think FZ is tuned down, but I'm not sure)
And listen to the album as you play or it's gonna be
hard to follow

-|-------------------|----|----------------|---|-----------|------------------|
-|-------------------|----|----------------|---|-----------|------------------|
-|-------------------|-x4-|----------------|---|------9-8-6|------------------|
-|-------------------|----|----------------|-x2|-----------|------------------|
-|------7--6---------|----|-----------12-11|---|--7-6------|-x2---------------|
-|--9-----------0-7-0|----|-9-7-5--2-------|---|9----------|------------------|
 B main bassline (ignore the top two
strings:)

-|-------------------------------------------|--------------------------------|
-|-------------------------------------------|--------------------------------|
-|-----13--13---13-12-11------11-9-----------|--------------------------------|
-|----------------------------------11-9-----|--------------------------------|
-|-11----------------------9--------------11-|--------------------------------|
-|-------------------------------------------|--------------------------------|

B

-|-----------|---|-------------|---|--------|---|-----------------------------|
-|-----5---4-|---|-------10-9--|---|----5-4-|---|------12-12-------10--10-----|
-|-----4---4-|---|-------9--9--|---|----4-4-|---|------11-11-------9---9------|
-|-----3---3-|-x4|-------8--8--|-x2|----3-3-|-x2|------10-10-------8---8------|
-|--4--4---4-|---|---9---9--9--|---|-4--4-4-|---|--11--11-11---9---9---9------|
-|-----------|---|-------------|---|--------|---|-----------------------------|

G2

-|----------------------------------------------------------------------------|
-|----------------------------------------------------------------------------|
-|----------------------------------------------------------------------------|
-|-15/--17p12^^-12/-------19p17p15^^-17b19r17b19^^^^^^^^^^^^^^^^^^r17---------|
-|---------------------17-----------------------------------------------------|
-|----------------------------------------------------------------------------|
 G1And now for Mr Zappa...                                     slow
release

-|----------------------------------------------------------------------------|
-|----------------------------------------------------------------------------|
-|-------------------------------------17-17-14-------------------------------|
-|*17*b19r17p15h17^^^^/--15-14-12-15-------------17b19r17^^^--10/15-12-12^^^--|
-|----------------------------------------------------------------------------|
-|----------------------------------------------------------------------------|
 G1*-* means it's not
plucked

-|----------------------------------------------------------------------------|
-|----------------------------------------------------------------------------|
-|----------------------------------------------------------------------------|
-|-12--15p14p12-12^^---5b6r5-3-/12--------------------------------------------|
-|-----------------------------------8-8-8-10-10p9p8-10/12^^^-----------------|
-|----------------------------------------------------------------------------|
 G1
s.h

-|-13-------------------------------------------------------------------------|
-|----13p11p10-------------------------13-------------------------------------|
-|-------------13p11p10-------10-12-14----10-10p8p7--------10---------12-10-7-|
-|----------------------12p10-----------------------10p9p7----12\10/12--------|
-|----------------------------------------------------------------------------|
-|----------------------------------------------------------------------------|
 G1 v. fast                                              gets blurry
here

-|----------------------------------------------------------------------------|
-|--13-13-10-------------------10-10------------------------------------------|
-|-----------13p12p10-13p12p10--------12b13r12----------10--------------------|
-|---------------------------------------------12-12-12----12-----------------|
-|----------------------------------------------------------------------------|
-|----------------------------------------------------------------------------|

G1

-|----------------------------------------------------------------------------|
-|----------------------------------------------------------------------------|
-|----------------------------------------------------------------------------|
-|----------------------------------------------------------------------------|
-|-10b12r10-8-10-12-----------------------------------------------------------|
-|------------------10^^------------------------------------------------------|
 G1                      end fast
section

-|--17\-----------------------------------------------------------------------|
-|--17\---5-5-5---5-5/7-------------------------------------------------------|
-|--17\---5-5-5---5-5/7----/10-9--9h10h12p10p9h10--7/10\9-10p9p7-5^^^---------|
-|--------4-4-4---4-4/6-------------------------------------------------------|
-|--------5-5-5---5-----------------------------------------------------------|
-|----------------------------------------------------------------------------|
 G1
w/wah

-|----------------------------------------------------------------------------|
-|-------------------------13p11p10--------12-p11--10-------------------------|
-|-5-5--5--5^^^555\-----------------10--7-------------------------------------|
-|----------------------------------------------------------------------------|
-|----------------------------------------------------------------------------|
-|----------------------------------------------------------------------------|
 G1     nh        dive
w/bar

-|----------------------------------------------------------------------------|
-|-10h11p10-------------------------------------------------------------------|
-|----------12-10-12b14-12b14r12--10-12b15r^^------12b14r12-10----------------|
-|--------------------------------------------------------------12--/15-------|
-|----------------------------------------------------------------------------|
-|----------------------------------------------------------------------------|
 G1                                   whammy reverse bends (go
nuts)

-|-13b15^^r13--10-8/10--10-10--15p13p10--15b17-17-17r15p13p10-----------------|
-|----------------------------------------------------------------------------|
-|----------------------------------------------------------------------------|
-|----------------------------------------------------------------------------|
-|----------------------------------------------------------------------------|
-|----------------------------------------------------------------------------|
 G1
sh
[ Tab from: http://www.guitartabs.cc/tabs/f/frank_zappa/sexual_harrassment_in_the_workplace_tab.html ]
-|--------------------------------------15----\13-----------------------------|
-|-15p13p10-15p13p10-10-15-13-10--------18b20--------13p10--10----------------|
-|-------------------------------12^^-----------------------12b13-------------|
-|----------------------------------------------------------------12----------|
-|----------------------------------------------------------------------------|
-|----------------------------------------------------------------------------|

G1

-|----------------------------------------------------------------------------|
-|----------------------------------------------------------------------------|
-|-17-17-14-14-12b14-14-14-14-12b14-14-14-14-12b14-14-------------------------|
-|----------------------------------------------------12^^--------------------|
-|----------------------------------------------------------------------------|
-|----------------------------------------------------------------------------|

G1

-|----------------------------------------------------------------------------|
-|----------------------------------------------------------------------------|
-|-------------------------------------------------10b12r10-------------------|
-|-15p14p12-12-10----------------------------10-12----------10----------------|
-|----------------12-----0-3-5-5-5-8-8-12-12-------------------12p10----------|
-|----------------------------------------------------------------------------|

G1

-|----------------------------------------------------------------------------|
-|-10-10-10-------------10-13-13-13-------------------------------------------|
-|----------13p12p10-10-------------14\12-10-10-10-10/12--10-12-12/14^^^^-----|
-|----------------------------------------------------------------------------|
-|----------------------------------------------------------------------------|
-|----------------------------------------------------------------------------|

G1

-|----------------------------------------------------------------------------|
-|----------------------------------------------------------------------------|
-|-14-14/---14\12^^------14p12p10-10h12-14p12p10-12-14-14p12p10---------------|
-|----------------------------------------------------------------------------|
-|----------------------------------------------------------------------------|
-|----------------------------------------------------------------------------|

G1

-|----------------------------------------------------------------------------|
-|-/15-15\13-15p13----15p14p13-13-13-13b15-15r13b15-15-15-15r13b15--/---------|
-|-----------------14---------------------------------------------------------|
-|----------------------------------------------------------------------------|
-|----------------------------------------------------------------------------|
-|----------------------------------------------------------------------------|

G1

-|----------------13----------------------------------------------------------|
-|-13-10^^^-10-13----13-10--------------------10------------------------------|
-|-------------------------12\10^^-12-12/14------12-10------------------------|
-|------------------------------------------------------12^^^-----------------|
-|----------------------------------------------------------------------------|
-|----------------------------------------------------------------------------|

G1

-|----------------------------------------------------------------------------|
-|-10---------------------------------10\8------------------------------------|
-|-12b14^^r12b14r12-10-10^^^----12b13------10---------------------------------|
-|--------------------------------------------/12-12-12-10^^^^^---------------|
-|----------------------------------------------------------------------------|
-|----------------------------------------------------------------------------|

G1

-|----------------------------------------------------------------------------|
-|----------------------------------/15-15-13-/18b20-18-----------------------|
-|----14-12-14-12^^^-/14-14-14^^^^--------------------------------------------|
-|----------------------------------------------------------------------------|
-|----------------------------------------------------------------------------|
-|----------------------------------------------------------------------------|

G1

-|----------------------------------------------------------------------------|
-|13p11p10-13p11p10-15^^^^^-13p11p10-13p11p10-13p11p10-15^^^^-----------------|
-|----------------------------------------------------------------------------|
-|----------------------------------------------------------------------------|
-|----------------------------------------------------------------------------|
-|----------------------------------------------------------------------------|

G1

-|-15b17r15-15b17^^--------/17-13---b10-----------/20--13b10r15---------------|
-|------------------15b12r15---16b18b15-15b12r15------------------------------|
-|----------------------------------------------------------------------------|
-|----------------------------------------------------------------------------|
-|----------------------------------------------------------------------------|
-|----------------------------------------------------------------------------|
 G1                  w/bar
throughout

-|------------/20-13b10r13^^^---------------/20b17----------------------------|
-|--15b12r15---------------------15b12r15-------------------------------------|
-|----------------------------------------------------------------------------|
-|----------------------------------------------------------------------------|
-|----------------------------------------------------------------------------|
-|----------------------------------------------------------------------------|

G1

--|-------------------------------------------------------/20-13\-------------|
--|--15b12r15-b18^^^^-18-18-18-18r15b18^^^-15b18r15b18^^^---------------------|
--|---------------------------------------------------------------------------|
--|---------------------------------------------------------------------------|
--|---------------------------------------------------------------------------|
--|---------------------------------------------------------------------------|

G1

-|----------------------------------------------------------------------------|
-|--10-13p12p10---------------------------------------------------------------|
-|--------------13p12p10--------------------------10-12--12b13r12-------15----|
-|-----------------------12^^^------14b15^^----12----------------12-/15---12--|
-|----------------------------10/12-------------------------------------------|
-|----------------------------------------------------------------------------|

G1

-|----------------------------------------------------------------------------|
-|-13-13-13--13--13---13-13---15-15-13-13-10----------------------------------|
-|-12-12-12--12--12---12-12------------------12b14---14b12--------------------|
-|-11-11-11--11--11---11-11--------------------------------10r15b17^^^^-------|
-|-12-12-12--12--12---12-12---------------------------------------------------|
-|----------------------------------------------------------------------------|
 G1                                          slowbend w/bar prebend
note

-|----------------------------------------------------------------------------|
-|----------------------------------------------------------------------------|
-|----------------------------------------------------------------------------|
-|-*17*^^^^^^-----------------------------------------------------------------|
-|----------------------------------------------------------------------------|
-|----------------------------------------------------------------------------|
 G1
Fdbck


--
Terry Thorne		   \
tthorne@nf.sympatico.ca     \   "If There's glory in
9 Lingard Place 	     \	 miracles, it's that they're
Bishop's Falls, NF, CA	      \	reversible" Gord Downie
A0H-1C0			       \
Comments