Frank Ocean - White Chords & Tabs

 

White Chords & Tabs

Frank Ocean Chords & Tabs

Version: 2 Type: Tab 0 ratings
1 star 2 stars 3 stars 4 stars 5 stars
comments

White Tab

   
"White" by Frank Ocean

Could this be earth, could this be light,
              Bbm                   AMaj
e-----------------------------------------------------]
B-------------4---------------------5-----------------]
G-------------4---------------------6-----------------]
D-------------6---------------------7-----------------]
A-----------------------------------------------------]
E-------------6---------------------5-----------------]

Does this mean every thing's, going to be alright,
                F#Maj                      Ebm7th 
e----------------2------------------------------------]
B----------------2--------------------------2---------]
G----------------3--------------------------3---------]
D-------------------------------------------4---------]
A-------------------------------------------6---------]
E----------------2------------------------------------]

One look out my window there's trees talking like people
            Bbmin Ab in bass                             F#Maj7  
e----------------1---------------------------------------------]
B----------------2----------------------------------------2----]
G----------------3----------------------------------------3----]
D---------------------------------------------------------3----]
A--------------------------------------------------------------]
E----------------4----------------------------------------2----]

All verses follow same progression

2nd verse
I dreamt of storms, I dreamt of sound,
I dreamt of gravity, keeping us around,
I slept in the darkness it was lonely and it was silent

3rd verse
What is this love, I don't feel the same,
Don't believe what this is, could be given a name,
I awoke you up there tracing planets on my forehead
[ Tab from: http://www.guitartabs.cc/tabs/f/frank_ocean/white_tab_ver_2.html ]
But I forget 23, like I forget 17,
             BMaj              BMaj
e-------------4-----------------4-----------------]
B-------------4-----------------4-----------------]
G-------------4-----------------4-----------------]
D-------------------------------------------------]
A-------------2-----------------2-----------------]
E-------------------------------------------------]


And I forget my first love, like you forget a day dream,
             Bbmin                  Bbmin
e-------------------------------------------------]
B--------------2--------------------2-------------]
G--------------3--------------------3-------------]
D--------------3--------------------3-------------]
A--------------1--------------------1-------------]
E-------------------------------------------------]


And what of all my wild friends, and the times I've had with them
                BMaj                     BMaj
e-----------------4-----------------------4-----------------]
B-----------------4-----------------------4-----------------]
G-----------------4-----------------------4-----------------]
D-----------------------------------------------------------]
A-----------------2-----------------------2-----------------]
E-----------------------------------------------------------]


But I'll fade to grey soon, on the TV station
                    Bbmin         Bbmin
e------------------------------------------------]
B--------------------2-------------2-------------]
G--------------------3-------------3-------------]
D--------------------3-------------3-------------]
A--------------------1-------------1-------------]
E------------------------------------------------]

Outro
e------------------------------------------------]
B-11----9-----------9-12-12-12-12-12-12-12-12----]
G---------11-8---11------------------------------]
D------------------------------------------------]
A------------------------------------------------]
E------------------------------------------------]

e------------------------------------------------]
B-11----9-----------9-11-11-11-11-11-11-11-11----]
G---------11-8---11------------------------------]
D------------------------------------------------]
A------------------------------------------------]
E------------------------------------------------]

Tabbed by: Jared Scherer
FEED GOD CABBAGE
Comments