Francis Scott Key - Star Spangled Banner Chords & Tabs

 

Star Spangled Banner Chords & Tabs

Francis Scott Key Chords & Tabs

Version: 4 Type: Tab 0 ratings
1 star 2 stars 3 stars 4 stars 5 stars
comments

Star Spangled Banner Tab

   
Title: Star Spangled Banner
Artist: Francis Scott Key
Album: 

Instrument: Guitar
Tabbed by: Allyssa Hill (gee-tar@mn.rr.com)
Tuning: Standard (E A D G B E)


E|--------------0----------------0----------------------||
B|-----------1----3-1--------------3-1-0---0-1-1--------||
G|-0-------0--------------0--0-0---------2-------0------||
D|---2---2------------2-4--------------------------2----||
A|-----4---------------------------------------------3--||
E|------------------------------------------------------||
[ Tab from: http://www.guitartabs.cc/tabs/f/francis_scott_key/star_spangled_banner_tab_ver_4.html ]
E|--------------0----------------0----------------------||
B|-----------1----3-1--------------3-1-0---0-1-1--------||
G|-0-------0--------------0--0-0---------2-------0------||
D|---2---2------------2-4--------------------------2----||
A|-----4---------------------------------------------3--||
E|------------------------------------------------------||

E|-0-0-0-1-3-3--1-0---0-1-1--1-0------------------------||
B|------------------3------------3-1-0---0-1------------||
G|-------------------------------------2---------0------||
D|-------------------------------------------2-4--------||
A|------------------------------------------------------||
E|------------------------------------------------------||

E|-------------------0-1-0------------------0-1-3-----0--1-------||
B|---1-1-1-0-------3-------3-1-1-0------1-3-------1-3-------3--1-||
G|-0---------2-2-2------------------0-0--------------------------||
D|---------------------------------------------------------------||
A|---------------------------------------------------------------||
E|---------------------------------------------------------------||
Comments