Francis Scott Key - Star Spangled Banner Chords & Tabs

 

Star Spangled Banner Chords & Tabs

Francis Scott Key Chords & Tabs

Version: 1 Type: Tab 5 ratings
1 star 2 stars 3 stars 4 stars 5 stars
comments

Star Spangled Banner Tab

Song: Star Spangled Banner
Artist: Francis Scott Key
Tabbed by: Zach Green (greenzach2000@yahoo.com)

E|-----1-5-3-1--------5-3-1-0-0-1-1-------|
B|1---1--------0-1-1-1-------3------1-----| x2
G|-2-2--------2-----------------------2---|
D|--3-----------------------------------3-|
A|----------------------------------------|
E|----------------------------------------|



E|5-5-5-6-8-8-6-5-3-3-5-6-6-5-3-1-0-------|
B|----------------------------------------|
G|----------------------------------------|
D|----------------------------------------|
A|----------------------------------------|
E|----------------------------------------|

[ Tab from: http://www.guitartabs.cc/tabs/f/francis_scott_key/star_spangled_banner_tab.html ]
E|-0-1-1---5-5-5-6-8-8-6-5-3-6-6--6--5-3-1-0-0-1-1------|
B|3-----1-----------------------------------3--------0-3|
G|-------2-----------------------------------------2----|
D|--------3---------------------------------------------|
A|------------------------------------------------------|
E|------------------------------------------------------|

E|---1-1-1-0---3-5-6-6-5-3-1-1-0------|
B|1-1-------3-3-----------------------|
G|------------------------------------|
D|------------------------------------|
A|------------------------------------|
E|------------------------------------|


E|---1--3---5--6--8---8---1---3--5-6-3-1--------|
B|1-1------------------------------------1------|
G|-----------------------------------------2----|
D|-------------------------------------------3--|
A|----------------------------------------------|
E|----------------------------------------------|


Thats it! Leave comments please. I always thought this site needed more patriotic stuff in it, so I made this!
Comments