Frampton Peter - Show Me The Way Chords & Tabs

 

Show Me The Way Chords & Tabs

Frampton Peter Chords & Tabs

Version: 2 Type: Tab 0 ratings
1 star 2 stars 3 stars 4 stars 5 stars
comments

Show Me The Way Tab

#----------------------------------PLEASE NOTE---------------------------------#
#This file is the author's own work and represents their interpretation of the #
#song. You may only use this file for private study, scholarship, or research. #
#------------------------------------------------------------------------------#
Peter Frampton - Show Me The Way
Tabbed by: DxL - MelvinTheLlama@aol.com - AIM: dxlogan187 - MSN: dxlogan316@hotmail.com


 Intro
                                             
E||-------------------|----------------------|
B||-------------------|-------------0--2--3--|
G||--2----------------|----------2-----------|
D||-------------------|----------------------|
A||-------------------|----------------------|
E||-------------------|----------------------|


                                              
--------------------|-------------5----------|
--0------------3----|--6--5--3-------3-------|
--------------------|---------------------3--|
--------------------|------------------------|
--------------------|------------------------|
--------------------|------------------------|


                                           
-------------------|----------------------|
-------------------|-------------0--2--3--|
--2----------------|----------2-----------|
-------------------|----------------------|
-------------------|----------------------|
-------------------|----------------------|


                                           
--------------------|---------------------|
--0------------3----|--6--5--3------------|
--------------------|---------------------|
--------------------|---------------------|
--------------------|---------------------|
--------------------|---------------------|


(I wonder how you're feeling
there's (Dmaj7)ringing in my ears ect).         


.............................................................
Lead break after 1st verse

E||----------------0--2--5--|--3--5--2---------------|
B||-------0--2--3-----------|-----------5--3------5--|
G||----2--------------------|------------------------|
D||-------------------------|------------------------|
A||-------------------------|------------------------|
E||-------------------------|------------------------|


                                                     
-----------------------------|---------------------||
--6-5----6-5----6-5----5--6--|--5--3----3----------||
-----------------------------|---------------------||
-----------------------------|---------------------||
-----------------------------|---------------------||
-----------------------------|---------------------||

(Well, I can see no reason..
you living on your nerves ect)

 
CHORUS
[ Tab from: http://www.guitartabs.cc/tabs/f/frampton_peter/show_me_the_way_tab_ver_2.html ]
..................................................................
main lead break
                                                   
E||--------------------0--|--2--5--3--5-----------|
B||-------0--2--3---------|--------------------8--|
G||----2------------------|-----------------------|
D||-----------------------|-----------------------|
A||-----------------------|-----------------------|
E||-----------------------|-----------------------|


                                                           
-----10--7-------------------|----------------------------|
--7---------10--7--10--7-----|----------------------------|
--------------------------9--|--7--9--10-9-7--9-----7--9--|
-----------------------------|-------------------9--------|
-----------------------------|----------------------------|
-----------------------------|----------------------------|


                                                   
-------------------------|------------------------|
------------7--10--8--7--|------7-----------------|
------7--9---------------|---------7--9-----7--9--|
-------------------------|---------------9--------|
-------------------------|------------------------|
-------------------------|------------------------|


                                                         
--------------------------|----------------7------------|
--------------10----------|------------10-------10--10--|
----10--9--7------7----7--|--10--9--7-------------------|
--------------------------|-----------------------------|
--------------------------|-----------------------------|
--------------------------|-----------------------------|


                                                        
------------10----10--9--7--|--9----7------7-----------|
--10--8--7------------------|----------10-------10--7--|
----------------------------|--------------------------|
----------------------------|--------------------------|
----------------------------|--------------------------|
----------------------------|--------------------------|


                                                          
------------10--------------|----------------------------|
--10--8--7------7-----------|----------------------------|
-------------------9--7--9--|--10-9-7--------------------|
----------------------------|----------9--7--------------|
----------------------------|----------------9--7--5--5--|
----------------------------|----------------------------|


                                                         
--------------------------|-----------------------------|
--------------------------|-----------------------------|
-----------------------7--|--10--9--7--10--9--7--10--9--|
-----------------7--9-----|-----------------------------|
--------5--7--9-----------|-----------------------------|
--5--7--------------------|-----------------------------|


                             
---------------------------||
---------------------------||
--7--10--9--7--10--9--7----||
---------------------------||
---------------------------||
---------------------------||

(Oh won't you show me the way ...)
I want you day after day


Comments