Frampton Peter - Show Me The Way Complete Chords & Tabs

 

Show Me The Way Complete Chords & Tabs

Frampton Peter Chords & Tabs

Version: 1 Type: Tab 3 ratings
1 star 2 stars 3 stars 4 stars 5 stars
comments

Show Me The Way Complete Tab

                                Show Me the Way      Peter Frampton                                


Submitted by: Travis (guitarfreak111)

std tuning
                                                                               
E||------|------|------|------|--5----5--5----5--5----|--5----5--5----5--5----|
B||------|------|------|------|--7----7--7----7--7----|--7----7--7----7--7----|
G||------|------|------|------|--7----7--7----7--7----|--6----6--6----6--6----|
D||------|------|------|------|--0----0--0----0--0----|--0----0--0----0--0----|
A||------|------|------|------|-----------------------|-----------------------|
E||------|------|------|------|-----------------------|-----------------------|


                                               Lead 1                  
--2----2--2----2--2----|--------------------|-------------------|
--3----3--3----3--3----|----3--3------------|-------------------|
--4----4--4----4--4----|----0--0------------|-------------------|
--4----4--4----4--4----|----3--3------------|--7~---------------|
-----------------------|----1--1------------|-------------------|
-----------------------|--------------------|-------------------|


                                                                      
----------------------|--------------------|-------------------------|
----------------------|--------------------|-------------10----------|
----------------6--7--|-----------------7--|--9b-9--7~-------7-------|
----------7--9--------|--9~----------------|----------------------9--|
----------------------|--------------------|-------------------------|
----------------------|--------------------|-------------------------|


                                                                
-------------------|----------------------|--------------------|
-------------------|----------------------|--------------------|
-------------------|----------------6--7--|-----------------7--|
--7~---------------|----------7--9--------|--9~----------------|
-------------------|----------------------|--------------------|
-------------------|----------------------|--------------------|


                                                                       
----------------------|--5----5--5----5--5----|--5----5--5----5--5----|
----------------------|--7----7--7----7--7----|--7----7--7----7--7----|
--9b-9--7~---7~-------|--7----7--7----7--7----|--7----7--7----7--7----|
----------------------|--0----0--0----0--0----|--0----0--0----0--0----|
----------------------|-----------------------|-----------------------|
----------------------|-----------------------|-----------------------|


                                                                        
--5----5--5----5--5----|--5----5--5----5--5----|--2----2--2----2--2----|
--7----7--7----7--7----|--7----7--7----7--7----|--3----3--3----3--3----|
--6----6--6----6--6----|--6----6--6----6--6----|--4----4--4----4--4----|
--0----0--0----0--0----|--0----0--0----0--0----|--4----4--4----4--4----|
-----------------------|-----------------------|-----------------------|
-----------------------|-----------------------|-----------------------|


                                                                       
--2----2--2----2--2----|-----------------------|----------------------|
--3----3--3----3--3----|--3----3--3----3--3----|----3--3------5--5----|
--4----4--4----4--4----|--0----0--0----0--0----|----0--0------0--0----|
--4----4--4----4--4----|--3----3--3----3--3----|----3--3------3--3----|
-----------------------|--1----1--1----1--1----|----1--1------3--3----|
-----------------------|-----------------------|----------------------|


                                                                        
--5----5--5----5--5----|--5----5--5----5--5----|--5----5--5----5--5----|
--7----7--7----7--7----|--7----7--7----7--7----|--7----7--7----7--7----|
--7----7--7----7--7----|--7----7--7----7--7----|--6----6--6----6--6----|
--0----0--0----0--0----|--0----0--0----0--0----|--0----0--0----0--0----|
-----------------------|-----------------------|-----------------------|
-----------------------|-----------------------|-----------------------|


                                                                        
--5----5--5----5--5----|--2----2--2----2--2----|--2----2--2----2--2----|
--7----7--7----7--7----|--3----3--3----3--3----|--3----3--3----3--3----|
--6----6--6----6--6----|--4----4--4----4--4----|--4----4--4----4--4----|
--0----0--0----0--0----|--4----4--4----4--4----|--4----4--4----4--4----|
-----------------------|-----------------------|-----------------------|
-----------------------|-----------------------|-----------------------|


                                                                        
-----------------------|-----------------------|--3----3--3----3--3----|
--3----3--3----3--3----|--3----3--3----3--3----|--3----3--3----3--3----|
--0----0--0----0--0----|--0----0--0----0--0----|--0----0--0----0--0----|
--3----3--3----3--3----|--3----3--3----3--3----|--2----2--2----2--2----|
--1----1--1----1--1----|--1----1--1----1--1----|--0----0--0----0--0----|
-----------------------|-----------------------|-----------------------|


                                                                          
--3----3--3----3--3----|--3----3--3----3--3----|--3----3--3--3--3--3--3--|
--3----3--3----3--3----|--3----3--3----3--3----|--3----3--3--3--3--3--3--|
--0----0--0----0--0----|--0----0--0----0--0----|--0----0--0--0--0--0--0--|
--2----2--2----2--2----|--0----0--0----0--0----|--0----0--0--0--0--0--0--|
--0----0--0----0--0----|-----------------------|-------------------------|
-----------------------|--3----3--3----3--3----|--3----3--3--3--3--3--3--|


                                                                            
--2----2--2--2--2--2--2--|--2----2--2--2--2--2--2--|--3----3--3----3--3----|
--3----3--3--3--3--3--3--|--3----3--3--3--3--3--3--|--3----3--3----3--3----|
--4----4--4--4--4--4--4--|--4----4--4--4--4--4--4--|--0----0--0----0--0----|
--4----4--4--4--4--4--4--|--4----4--4--4--4--4--4--|--0----0--0----0--0----|
--2----2--2--2--2--2--2--|--2----2--2--2--2--2--2--|-----------------------|
-------------------------|-------------------------|--3----3--3----3--3----|


                                                                              
--3----3--3--3--3--3--3--|--2----2--2--2--2--2--2--|--2----2--2--2--2--2--2--|
--3----3--3--3--3--3--3--|--3----3--3--3--3--3--3--|--3----3--3--3--3--3--3--|
--0----0--0--0--0--0--0--|--4----4--4--4--4--4--4--|--4----4--4--4--4--4--4--|
--0----0--0--0--0--0--0--|--4----4--4--4--4--4--4--|--4----4--4--4--4--4--4--|
-------------------------|--2----2--2--2--2--2--2--|--2----2--2--2--2--2--2--|
--3----3--3--3--3--3--3--|-------------------------|-------------------------|


                                                 Lead 2                      
--3----3--3----3--3----|--3----------------|--------------------------|
--3----3--3----3--3----|--3----------------|-------------------7--10--|
--0----0--0----0--0----|--4----------------|----------6--7--9---------|
--0----0--0----0--0----|--2----------------|----7--9------------------|
-----------------------|--0----------------|--------------------------|
--3----3--3----3--3----|-------------------|--------------------------|


                                                                           
-------------------------|-------------------------|----------------------|
--8--10--7---------------|----------------------7--|--9--7~---7~---7~-----|
------------9--7~-----9--|--9r9---9--9----7--9-----|----------------------|
-------------------------|-------------------------|----------------------|
-------------------------|-------------------------|----------------------|
-------------------------|-------------------------|----------------------|


                                                                        
--5----5--5----5--5----|--5----5--5----5--5----|--5----5--5----5--5----|
--7----7--7----7--7----|--7----7--7----7--7----|--7----7--7----7--7----|
--7----7--7----7--7----|--7----7--7----7--7----|--6----6--6----6--6----|
--0----0--0----0--0----|--0----0--0----0--0----|--0----0--0----0--0----|
-----------------------|-----------------------|-----------------------|
-----------------------|-----------------------|-----------------------|


                                                                        
--5----5--5----5--5----|--2----2--2----2--2----|--2----2--2----2--2----|
--7----7--7----7--7----|--3----3--3----3--3----|--3----3--3----3--3----|
--6----6--6----6--6----|--4----4--4----4--4----|--4----4--4----4--4----|
--0----0--0----0--0----|--4----4--4----4--4----|--4----4--4----4--4----|
-----------------------|-----------------------|-----------------------|
-----------------------|-----------------------|-----------------------|


                                                                       
-----------------------|----------------------|--5----5--5----5--5----|
--3----3--3----3--3----|----3--3------5--5----|--7----7--7----7--7----|
--0----0--0----0--0----|----0--0------0--0----|--7----7--7----7--7----|
--3----3--3----3--3----|----3--3------3--3----|--0----0--0----0--0----|
--1----1--1----1--1----|----1--1------3--3----|-----------------------|
-----------------------|----------------------|-----------------------|


                                                                        
--5----5--5----5--5----|--5----5--5----5--5----|--5----5--5----5--5----|
--7----7--7----7--7----|--7----7--7----7--7----|--7----7--7----7--7----|
--7----7--7----7--7----|--6----6--6----6--6----|--6----6--6----6--6----|
--0----0--0----0--0----|--0----0--0----0--0----|--0----0--0----0--0----|
-----------------------|-----------------------|-----------------------|
-----------------------|-----------------------|-----------------------|


                                                                        
--2----2--2----2--2----|--2----2--2----2--2----|-----------------------|
--3----3--3----3--3----|--3----3--3----3--3----|--3----3--3----3--3----|
--4----4--4----4--4----|--4----4--4----4--4----|--0----0--0----0--0----|
--4----4--4----4--4----|--4----4--4----4--4----|--3----3--3----3--3----|
-----------------------|-----------------------|--1----1--1----1--1----|
-----------------------|-----------------------|-----------------------|


                                                                        
-----------------------|--3----3--3----3--3----|--3----3--3----3--3----|
--3----3--3----3--3----|--3----3--3----3--3----|--3----3--3----3--3----|
--0----0--0----0--0----|--0----0--0----0--0----|--0----0--0----0--0----|
--3----3--3----3--3----|--2----2--2----2--2----|--2----2--2----2--2----|
--1----1--1----1--1----|--0----0--0----0--0----|--0----0--0----0--0----|
-----------------------|-----------------------|-----------------------|


                                                                            
--3----3--3----3--3----|--3----3--3--3--3--3--3--|--2----2--2--2--2--2--2--|
--3----3--3----3--3----|--3----3--3--3--3--3--3--|--3----3--3--3--3--3--3--|
--0----0--0----0--0----|--0----0--0--0--0--0--0--|--4----4--4--4--4--4--4--|
--0----0--0----0--0----|--0----0--0--0--0--0--0--|--4----4--4--4--4--4--4--|
-----------------------|-------------------------|--2----2--2--2--2--2--2--|
--3----3--3----3--3----|--3----3--3--3--3--3--3--|-------------------------|


                                                                            
--2----2--2--2--2--2--2--|--3----3--3----3--3----|--3----3--3--3--3--3--3--|
--3----3--3--3--3--3--3--|--3----3--3----3--3----|--3----3--3--3--3--3--3--|
--4----4--4--4--4--4--4--|--0----0--0----0--0----|--0----0--0--0--0--0--0--|
--4----4--4--4--4--4--4--|--0----0--0----0--0----|--0----0--0--0--0--0--0--|
--2----2--2--2--2--2--2--|-----------------------|-------------------------|
-------------------------|--3----3--3----3--3----|--3----3--3--3--3--3--3--|


                                                                            
--2----2--2--2--2--2--2--|--2----2--2--2--2--2--2--|--3----3--3----3--3----|
--3----3--3--3--3--3--3--|--3----3--3--3--3--3--3--|--3----3--3----3--3----|
--4----4--4--4--4--4--4--|--4----4--4--4--4--4--4--|--0----0--0----0--0----|
--4----4--4--4--4--4--4--|--4----4--4--4--4--4--4--|--0----0--0----0--0----|
--2----2--2--2--2--2--2--|--2----2--2--2--2--2--2--|-----------------------|
-------------------------|-------------------------|--3----3--3----3--3----|

[ Tab from: http://www.guitartabs.cc/tabs/f/frampton_peter/show_me_the_way_complete_tab.html ]
                                                                              
--3----3--3--3--3--3--3--|--2----2--2--2--2--2--2--|--2----2--2--2--2--2--2--|
--3----3--3--3--3--3--3--|--3----3--3--3--3--3--3--|--3----3--3--3--3--3--3--|
--0----0--0--0--0--0--0--|--4----4--4--4--4--4--4--|--4----4--4--4--4--4--4--|
--0----0--0--0--0--0--0--|--4----4--4--4--4--4--4--|--4----4--4--4--4--4--4--|
-------------------------|--2----2--2--2--2--2--2--|--2----2--2--2--2--2--2--|
--3----3--3--3--3--3--3--|-------------------------|-------------------------|


                                                       Solo                    
--3----3--3--3--3--3--3--|--3----3--3----3--3--3--|-----------------------|
--3----3--3--3--3--3--3--|--3----3--3----3--3--3--|-----------------------|
--0----0--0--0--0--0--0--|--4----4--4----4--4--4--|----------6--7~-----9--|
--0----0--0--0--0--0--0--|--2----2--2----2--2--2--|----7--9---------------|
-------------------------|--0----0--0----0--0--0--|-----------------------|
--3----3--3--3--3--3--3--|------------------------|-----------------------|


                                                        
-------------------------|-----10--7-------------------|
--7--10--8--10~-------8--|--7---------10--7--10--7-----|
-------------------------|--------------------------9--|
-------------------------|-----------------------------|
-------------------------|-----------------------------|
-------------------------|-----------------------------|


                                                        
----------------------------|--------------------------|
----------------------------|-------------7--10--8--7--|
--7--9r-9-9--7-9h7----7--9~-|--9----7--9---------------|
-------------------9--------|--------------------------|
----------------------------|--------------------------|
----------------------------|--------------------------|


                                                     
-------------------------|--------------------------|
-------------------------|-------------10-----------|
------9r9--7h9-----7--9h-|----9b-9--7------7-----7--|
----------------9--------|--------------------9-----|
-------------------------|--------------------------|
-------------------------|--------------------------|


                                                         
---------------7--7----------|----------10~---10--9--7--|
-----------10--------10--10~-|----8--7------------------|
--9b-9--7--------------------|--------------------------|
-----------------------------|--------------------------|
-----------------------------|--------------------------|
-----------------------------|--------------------------|


                                                       
--9----7--9--7~----------|------------10--------------|
------------------10--7--|--10--8--7------8--7--------|
-------------------------|----------------------9--7--|
-------------------------|----------------------------|
-------------------------|----------------------------|
-------------------------|----------------------------|


                                                         
----------------------------|---------------------------|
----------------------------|---------------------------|
--9b9--7-9-7----7--9--7--9--|--9b9--7-9--7--------------|
-------------9--------------|---------------9--7--------|
----------------------------|---------------------9--8--|
----------------------------|---------------------------|


                                                                              
--------------------------|--------------------------|-----------------------|
--------------------------|--------------------------|-----------------------|
-----------------------7--|--9b-9--7--9b-9--7--9b-9--|--7--9b-9--7--7~-------|
-----------------7--9-----|--------------------------|-----------------------|
--7--5-----5--9-----------|--------------------------|-----------------------|
--------7-----------------|--------------------------|-----------------------|


                                                                        
--5----5--5----5--5----|--5----5--5----5--5----|--5----5--5----5--5----|
--7----7--7----7--7----|--7----7--7----7--7----|--7----7--7----7--7----|
--7----7--7----7--7----|--7----7--7----7--7----|--6----6--6----6--6----|
--0----0--0----0--0----|--0----0--0----0--0----|--0----0--0----0--0----|
-----------------------|-----------------------|-----------------------|
-----------------------|-----------------------|-----------------------|


                                                                        
--5----5--5----5--5----|--2----2--2----2--2----|--2----2--2----2--2----|
--7----7--7----7--7----|--3----3--3----3--3----|--3----3--3----3--3----|
--6----6--6----6--6----|--4----4--4----4--4----|--4----4--4----4--4----|
--0----0--0----0--0----|--4----4--4----4--4----|--4----4--4----4--4----|
-----------------------|-----------------------|-----------------------|
-----------------------|-----------------------|-----------------------|


                                                                        
-----------------------|-----------------------|--3----3--3----3--3----|
--3----3--3----3--3----|--3----3--3----3--3----|--3----3--3----3--3----|
--0----0--0----0--0----|--0----0--0----0--0----|--0----0--0----0--0----|
--3----3--3----3--3----|--3----3--3----3--3----|--2----2--2----2--2----|
--1----1--1----1--1----|--1----1--1----1--1----|--0----0--0----0--0----|
-----------------------|-----------------------|-----------------------|


                                                                          
--3----3--3----3--3----|--3----3--3----3--3----|--3----3--3--3--3--3--3--|
--3----3--3----3--3----|--3----3--3----3--3----|--3----3--3--3--3--3--3--|
--0----0--0----0--0----|--0----0--0----0--0----|--0----0--0--0--0--0--0--|
--2----2--2----2--2----|--0----0--0----0--0----|--0----0--0--0--0--0--0--|
--0----0--0----0--0----|-----------------------|-------------------------|
-----------------------|--3----3--3----3--3----|--3----3--3--3--3--3--3--|


                                                                             
--2----2--2--2--2--2--2--|--2----2--2--2--2--2--2--|--3----3--3--3--3--3----|
--3----3--3--3--3--3--3--|--3----3--3--3--3--3--3--|--3----3--3--3--3--3----|
--4----4--4--4--4--4--4--|--4----4--4--4--4--4--4--|--0----0--0--0--0--0----|
--4----4--4--4--4--4--4--|--4----4--4--4--4--4--4--|--0----0--0--0--0--0----|
--2----2--2--2--2--2--2--|--2----2--2--2--2--2--2--|------------------------|
-------------------------|-------------------------|--3----3--3--3--3--3----|


                                                                              
--3----3--3--3--3--3--3--|--2----2--2--2--2--2--2--|--2----2--2--2--2--2--2--|
--3----3--3--3--3--3--3--|--3----3--3--3--3--3--3--|--3----3--3--3--3--3--3--|
--0----0--0--0--0--0--0--|--4----4--4--4--4--4--4--|--4----4--4--4--4--4--4--|
--0----0--0--0--0--0--0--|--4----4--4--4--4--4--4--|--4----4--4--4--4--4--4--|
-------------------------|--2----2--2--2--2--2--2--|--2----2--2--2--2--2--2--|
--3----3--3--3--3--3--3--|-------------------------|-------------------------|


                                                                             
--3----3--3--3--3--3----|--3----3--3--3--3--3--3--|--2----2--2--2--2--2--2--|
--3----3--3--3--3--3----|--3----3--3--3--3--3--3--|--3----3--3--3--3--3--3--|
--0----0--0--0--0--0----|--0----0--0--0--0--0--0--|--4----4--4--4--4--4--4--|
--0----0--0--0--0--0----|--0----0--0--0--0--0--0--|--4----4--4--4--4--4--4--|
------------------------|-------------------------|--2----2--2--2--2--2--2--|
--3----3--3--3--3--3----|--3----3--3--3--3--3--3--|-------------------------|


                                                                             
--2----2--2--2--2--2--2--|--3----3--3--3--3--3----|--3----3--3--3--3--3--3--|
--3----3--3--3--3--3--3--|--3----3--3--0--3--3----|--3----3--3--3--3--3--3--|
--4----4--4--4--4--4--4--|--0----0--0--0--0--0----|--0----0--0--0--0--0--0--|
--4----4--4--4--4--4--4--|--0----0--0--0--0--0----|--0----0--0--0--0--0--0--|
--2----2--2--2--2--2--2--|------------------------|-------------------------|
-------------------------|--3----3--3--3--3--3----|--3----3--3--3--3--3--3--|


                                                                              
--2----2--2--2--2--2--2--|--2----2--2--2--2--2--2--|--3----3--3--3--3--3--3--|
--3----3--3--3--3--3--3--|--3----3--3--3--3--3--3--|--3----3--3--3--3--3--3--|
--4----4--4--4--4--4--4--|--4----4--4--4--4--4--4--|--0----0--0--0--0--0--0--|
--4----4--4--4--4--4--4--|--4----4--4--4--4--4--4--|--0----0--0--0--0--0--0--|
--2----2--2--2--2--2--2--|--2----2--2--2--2--2--2--|-------------------------|
-------------------------|-------------------------|--3----3--3--3--3--3--3--|


                                                                         
--3----3--3----3--3--3--|--5----5--5----5--5----|--5----5--5----5--5----|
--3----3--3----3--3--3--|--7----7--7----7--7----|--7----7--7----7--7----|
--4----4--4----4--4--4--|--7----7--7----7--7----|--6----6--6----6--6----|
--2----2--2----2--2--2--|--0----0--0----0--0----|--0----0--0----0--0----|
--0----0--0----0--0--0--|-----------------------|-----------------------|
------------------------|-----------------------|-----------------------|


                                                                        
--2----2--2--2--2--2--2--|--5----------------|--2----2--2--2--2--2--2--|
--3----3--3--3--3--3--3--|--0----------------|--3----3--3--3--3--3--3--|
--4----4--4--4--4--4--4--|--0----------------|--4----4--4--4--4--4--4--|
--4----4--4--4--4--4--4--|--0----------------|--4----4--4--4--4--4--4--|
--2----2--2--2--2--2--2--|--0----------------|--2----2--2--2--2--2--2--|
-------------------------|-------------------|-------------------------|


                                                                             
--2----2--2--2--2--2--2--|--3----3--3--3--3--3----|--3----3--3--3--3--3--3--|
--3----3--3--3--3--3--3--|--3----3--3--0--3--3----|--3----3--3--3--3--3--3--|
--4----4--4--4--4--4--4--|--0----0--0--0--0--0----|--0----0--0--0--0--0--0--|
--4----4--4--4--4--4--4--|--0----0--0--0--0--0----|--0----0--0--0--0--0--0--|
--2----2--2--2--2--2--2--|------------------------|-------------------------|
-------------------------|--3----3--3--3--3--3----|--3----3--3--3--3--3--3--|


                                                                             
--2----2--2--2--2--2--2--|--2----2--2--2--2--2--2--|--3----3--3--3--3--3----|
--3----3--3--3--3--3--3--|--3----3--3--3--3--3--3--|--3----3--3--0--3--3----|
--4----4--4--4--4--4--4--|--4----4--4--4--4--4--4--|--0----0--0--0--0--0----|
--4----4--4--4--4--4--4--|--4----4--4--4--4--4--4--|--0----0--0--0--0--0----|
--2----2--2--2--2--2--2--|--2----2--2--2--2--2--2--|------------------------|
-------------------------|-------------------------|--3----3--3--3--3--3----|


                                                                              
--3----3--3--3--3--3--3--|--2----2--2--2--2--2--2--|--2----2--2--2--2--2--2--|
--3----3--3--3--3--3--3--|--3----3--3--3--3--3--3--|--3----3--3--3--3--3--3--|
--0----0--0--0--0--0--0--|--4----4--4--4--4--4--4--|--4----4--4--4--4--4--4--|
--0----0--0--0--0--0--0--|--4----4--4--4--4--4--4--|--4----4--4--4--4--4--4--|
-------------------------|--2----2--2--2--2--2--2--|--2----2--2--2--2--2--2--|
--3----3--3--3--3--3--3--|-------------------------|-------------------------|


                                                                          
--3----3--3--3--3--3----|--3----3--3----3--3--3--|--5----5--5----5--5----|
--3----3--3--0--3--3----|--3----3--3----3--3--3--|--7----7--7----7--7----|
--0----0--0--0--0--0----|--4----4--4----4--4--4--|--7----7--7----7--7----|
--0----0--0--0--0--0----|--2----2--2----2--2--2--|--0----0--0----0--0----|
------------------------|--0----0--0----0--0--0--|-----------------------|
--3----3--3--3--3--3----|------------------------|-----------------------|


                                                                        
--5----5--5----5--5----|--2----2--2----2--2----|-----------------------|
--7----7--7----7--7----|--3----3--3----3--3----|----3--3----3/-5--5----|
--6----6--6----6--6----|--4----4--4----4--4----|----0--0----0/-0--0----|
--0----0--0----0--0----|--4----4--4----4--4----|----3--3----3/-5--5----|
-----------------------|-----------------------|----1--1----1/-3--3----|
-----------------------|-----------------------|-----------------------|


                     
--2----------------||
--3----------------||
--2----------------||
--0----------------||
-------------------||
-------------------||


Comments