Frames - Starstar Chords & Tabs

 

Starstar Chords & Tabs

Frames Chords & Tabs

Version: 1 Type: Tab 0 ratings
1 star 2 stars 3 stars 4 stars 5 stars
comments

Starstar Tab

   
                       Star, star
                                   by "The Frames"
This is my favourite frames song by far. 
A masterpiece by Glen Hansard & Co. Check out other frames songs, definitely
work playing!!  *Alan4*

Intro:
e----0-------0----0---------------0---0-------------------------|
B----0-----4----5----0----------2---4---------------------------|
G----1----------------------------------------------------------|
D----2----------------------------------------------------------|
A----2----------------------------------------------------------|
E----0----------------------------------------------------------|

I have incorrect lyrics so there's no point posting them!! Sorry

[ Tab from: http://www.guitartabs.cc/tabs/f/frames/starstar_tab.html ]
Use thes barre chords for the verse which give the song a lovely sound
Verse;
       E       B       A       B
e------0-------0-------0-------0--|
B------0-------0-------0-------0--|
G------1-------8-------6-------8--|
D------2-------9-------7-------9--|
A------2-------9-------7-------9--|
E------0-------7-------5-------7--|

For the Prechorus use C#m, A and B
and star,star , teach me how to shine,
   C#m  A   B
e---0---0---0---|
B---5---0---0---|
G---6---6---8---|
D---6---7---9---|
A---4---7---9---|
E---0---5---7---|


That's really it. If you have any difficulties, corrections, or comments,
mail me: alnug@eircom.net   *Alan4*
Comments