Frames - Lay Me Down Chords & Tabs

 

Lay Me Down Chords & Tabs

Frames Chords & Tabs

Version: 1 Type: Chords 0 ratings
1 star 2 stars 3 stars 4 stars 5 stars
comments

Lay Me Down Chords

   
                          Lay Me Down
                                      by "The Frames"
Tabbed by *Alan4*
Chords;
    D   Gm    A
e---2----3----0----|
B---3----3----2----|
G---2----3----2----|
D---0----5----2----|
A---0----5----0----|
E---0----3----0----| 


Intro Riff;
     D
e----2-------------|
B----3-------------|
G----0-h-2---------|
D------------------|
A------------------|
E------------------|
[ Tab from: http://www.guitartabs.cc/tabs/f/frames/lay_me_down_crd.html ]
Verse:
D                   
I will write you letters that 
Gm                D
explain the way feeling

(Don't know the lyrics, sorry)

Verse continues G and D

Chorus;
 A      D
Lay me down
 A                D
in the hallowed ground
 A            D           A
down by your side i will stay
            D    Gm   D   Gm   D
so lay me down



That's basically it. If you need any help, mail me;  alnug@eircom.net
               *Alan4*
Comments