Frames - God Bless Mom Chords & Tabs

 

God Bless Mom Chords & Tabs

Frames Chords & Tabs

Version: 1 Type: Tab 0 ratings
1 star 2 stars 3 stars 4 stars 5 stars
comments

God Bless Mom Tab

God Bless Mom
The Frames
Album: Dance The Devil

When played live Glen uses a capo on 2nd fret although the recorded version sounds like it's done without a capo, either way sounds cool. :) 

This tab isn't anywhere near perfect it's just to give you an idea of how to play the song.

Listen to the cd for strumming patterns and order of riffs. Any corrections and improvements welcome. 

Tab is relative to capo on 2nd fret, i.e. 3 means 5 etc.. 

Intro/Verse 
e:---------------------------------------------------------------------------| 
B:---------------------------------------------------------------------------| 
G:------5--------5-----5--------5--------5--------------5--------5-----------| 
D:---5--------5-----5--------5--------5--------5-----5--------5--------5-----| 
A:3--------3--------------2--------2--------2-----0--------0--------0--------| 
E:---------------------------------------------------------------------------| 

e:-----------------------------------------------------------------------| 
B:-----------------------------------------------------------------------| 
G:-----5--------5--------------5--------5--------------5--------5--------| 
D:--5--------5--------5-----5--------5--------5-----5--------5--------5--| 
A:0-------0--------0-----------------------------------------------------| 
E:-----------------------4--------4--------4-----3--------3--------3-----| 

e:--------------------------------------------| 
B:--------------------------------------------| 
G:------5--------5--------------5-----5-------| 
D:---5--------5--------5-----5-----5----------| 
A:--------------------------------------------| 
E:2--------2--------2-----2--------------2----| 

[ Tab from: http://www.guitartabs.cc/tabs/f/frames/god_bless_mom_tab.html ]
Loud Noisy bit 
e:-----------------------| 
B:-----------------------| 
G:----5--5--5--5--5--5---| 
D:----5--5--5--5--5--5---| 
A:----3--2--0------------| 
E:-------------4--3--2---| 

Bridge 
e:----------| 
B:----------| 
G:--5--5----| 
D:--5--5----| 
A:--3--3----| 
E:--3--4----| (X2) 


Chorus 

e:--------------| 
B:--------------| 
G:-5-----2------| 
D:-5--5--2--3---| 
A:-3--5--0--3---| 
E:----3-----1---| 


Do this lots a times, muting for the quiet parts.
Listen to the cd and you'll be able to work it out easily enough.
Don't think it's right but it sounds ok.

then 

e:--------------| 
B:--------------| 
G:--------------| 
D:-3--5--3--5---| 
A:-3--5--3--5---| 
E:-1--3--1--3---|

then back to verse. 

Outro 
e:-----------------------------------------------------------------| 
B:-----------------------------------------------------------------| 
G:--5-----2--------------------5--------5-----------------5--------| 
D:--5--5--2--3--5--7--9-----5--------5--------5--------5--------5--| 
A:--3--5--0--3--5--7--9--3--------3--------3--------2--------2-----| 
E:-----3-----1--3--5--7--------------------------------------------| 

e:---------------------------------------------------------------------------| 
B:---------------------------------------------------------------------------| 
G:5--------------5--------5--------------5--------5--------------5--------5--| 
D:------5-----5--------5--------5-----5--------5--------5-----5--------5-----| 
A:---2-----0--------0--------0-----------------------------------------------| 
E:---------------------------------4--------4--------4-----3--------3--------| 

e:-------------------| 
B:-------------------| 
G:------5--------5---| 
D:---5--------5------| 
A:-------------------| 
E:2--------2--------2| 
Comments