Fra Lippo Lippi - Stitches And Burns Chords & Tabs

 

Stitches And Burns Chords & Tabs

Fra Lippo Lippi Chords & Tabs

Version: 1 Type: Bass Tab 0 ratings
1 star 2 stars 3 stars 4 stars 5 stars
comments

Stitches And Burns Bass Tab

stitches and burns
fra lippo lippi
bass tab

intro/chorus:
|------------------------------------------------|
|-------------------------------0----------------|
|--------------------------3--3---3---0--0-0--0--|
|-1--1-1--1----3--3-3--3-------------------------|

|------------------------------------------------|
|------------------------------------------------|
|--------------------------0--0-2-0--------------|
|-1--1-1--1----3--3-3--3--------------1--1-1--1--|

verses:
|-------------------------------------------------|
|-------------------------------0-----------------|
|--------------------------3--3---3---------------|
|-1--1-1--1----3--3-3--3--------------1--1-1--1---|

|--------------------------------------------------|
|--------------------------------------------------|
|--------------------------0--0-2-0----------------|
|-1--1-1--1----3--3-3--3--------------1--1-1--1----|
[ Tab from: http://www.guitartabs.cc/tabs/f/fra_lippo_lippi/stitches_and_burns_btab.html ]
|-------------------------------------------------|
|-------------------------------0-----------------|
|--------------------------3--3---3---------------|
|-1--1-1--1----3--3-3--3--------------1--1-1--1---|

|------------------------------------------------------------|
|--------------------------0--0-2-0--------------------------|
|-1--1-1--1----3--3-3--3--------------1--1-1--1---1--1-1--1--|
|------------------------------------------------------------|

chorus:
verse 2:
chorus:

bridge:
|-------------------------------------------------------------|
|-------------------------------------------------------------|
|-5-5-5---------3-5-7-5-3---------5-5-5-----------------------|
|--------3-3-3-------------1-1-1---------0-0-0--1-1-1--3-3-3--|

|--------------------------------------------------------------------------|
|--------------------------------------------------------------------------|
|-5-5-5---------3-5-7-5-3--------5-5-5-------------------------------------|
|--------3-3-3-------------1-1-1--------0-0-0--1-1-1--1--3-3-3-3-3-3-3-3-3-|

not very sure on this tab.. this is a very nice song.
Comments